Blur

10. 8. 2022

: Song 2

Intro: + Verse

E:|--F----------------D#-----------------G#------A#--C------------
B:|---------------------------------------------------------------
G:|--x--10--10--x--x--8---8---8---x--x---8---8-/-10/-12---12-12-x-
D:|--x--10--10--x--x--8---8---8---x--x---6---6-/-8-/-10---10-10-x-
A:|--x--8---8---x--x--6---6---6---x--x---6---6-/-8-/-10---10-10-x-
E:|---------------------------------------------------------------

Chorus: + Pre-Chorus
E:|----------------------|-Chorus end:
B:|----------------------|------------
G:|--10--8---------------|--10-5--10--
D:|--10--8---6-/-8-/-10--|--10-6--11--
A:|--8---6---6-/-8-/-10--|--8--6--11--
E:|--8---6---4-/-6-/-8---|--8--4--9---

Woo-hoo [4×]

I got my head checked
By a jumbo jet
It wasn't easy
But nothing i-is
No

Woo-hoo
When I feel heavy-metal
Woo-hoo
And I'm pins and I'm needles
Woo-hoo
Well, I lie and I'm easy
All of the time but I'm never sure
Why I need you
Pleased to meet you

I got my head done
When I was young
It's not my problem
It's not my problem

Woo-hoo
When I feel heavy-metal
Woo-hoo
And I'm pins and I'm needles
Woo-hoo
Well, I lie and I'm easy
All of the time but I'm never sure
Why I need you
Pleased to meet you

Yeah yeah
Yeah yeah
Yeah yeah
Oh yeah
1