Anna K.

6. 12. 2022

: Nebe

A C#mi A C#mi 

A 
Odlítaj za 
C#mi 
jiným světem

A 
Odlítaj za 
C#mi 
lepším stínem

A 
Nezůstane 
C#mi 
ani jedi
H 

E 
Krásný
C#mi 
E 
krásný 
C#mi 
nejsou stejný

E 
Krásná 
C#mi 
tvář vypá
H 
lená svatozář

C#mi 
S oblohou se znali ze starejch 
A 
časů

C#mi 
S oblohou je spojil déšt do 
A 
vlasů, 
H 
sníh


E 
A tak nááá
H 
ám vzali 
C#mi 
nebe,
E 
 

vzali A 
nebe ..
H 
 

E 
Nááá
H 
ám vzali 
C#mi 
nebe,
E 
 

vzali A 
nebe ..
H E 
 


A 
Zůstali jsme 
C#mi 
sami prázdný

A 
Nevlídný a 
C#mi 
příliš vážný

A 
Spoutaný a v 
C#mi 
půlce zlome
H 

E 
Krásný
C#mi 
E 
krásný 
C#mi 
nejsou stejný

E 
Krásná 
C#mi 
tvář vypá
H 
lená svatozář

A 
Chtěli jsme mít 
C#mi 
všechno stejný

A 
Srovnaný a 
C#mi 
samozřejmý

A 
Zůstali jsme 
C#mi 
sami šedi
H 
vý a zlomený


A tak náááám vzali nebe,
vzali nebe ..
Náááám vzali nebe,
vzali nebe ..
Náááám vzali nebe,
vzali nebe ..
Náááám …
správné akordy zjednodušeně:

A 4 C#mi H E

Riff: 

E:|-A---------------C#mi-------------
B:|----------------------------------
G:|-----4-------4-------4-------4----
D:|---2---2---2---2---2---2---2---2--
A:|-0-------0-------4-------4--------
E:|----------------------------------

E:|-H-------0---------------0--------
B:|-------0---0-----------0---0------
G:|-----4-------4-------4-------4----
D:|---4-----------4---4-----------4--
A:|-2---------------2----------------
E:|----------------------------------

Riff2: 

E:|-E---------------C#mi----0--------
B:|---------0-------------5---5------
G:|-------4---4---------6-------6----
D:|-----2-------2-----6-----------6--
A:|---2-------------4----------------
E:|-0-------------0------------------

E:|-H-------0---------------0--------
B:|-------0---0-----------0---0------
G:|-----4-------4-------4-------4----
D:|---4-----------4---4-----------4--
A:|-2---------------2----------------
E:|----------------------------------

Ref: 

E H   4 C#mi 7 E 5 A 7 H
1

: Nelítám Nízko

tuning: Eb Ab Db Gb Bb Eb

1. C 
Hvězdy na nebi 
Dmi 
bdí a ty 
F 
dlouho 
C 
spíš
Dmi F 
 

C 
Přijdeš o svůj hlas 
Dmi 
dřív, než ho 
F 
usly
C 
šíš
Dmi F 
 

G 
Možná ví, co tvý 
F 
křídla a 
A# 
noc ti nedá

G 
Něco oku
F 
síš ..
A# 
 

G 
V dálce pomalu 
F 
svítá, už se 
A# 
vítr zvedá

G 
A ty pole
F 
tíš ..


C Ami 
R: Všechno F 
nečeká blízko, tak 
G 
nelítej nízko


C Ami 
Všechno F 
nečeká blízko, tak 
G 
nelítej nízko

F 
Snad se probudíš ..


C Dmi F 
C Dmi F 

2. Hloupě se ptáš asi netušíš
Já už svý křídla mám, sám to hned uvidíš
Jak nelítám nízko a noc mi nedá
Něco okusím ..
V dálce pomalu svítá, už se vítr zvedá
A já poletím ..

R: Všechno nečeká blízko, tak nelítej nízko
Všechno nečeká blízko, tak nelítej nízko
Všechno nečeká blízko, tak nelítej nízko
Snad to pochopíš
sloka: C, Dmi, F5 nebo F

E:|--0---5---x---1--
B:|--1---6---10--1--
G:|--0---7---10--2--
D:|--2---7---10--3--
A:|--3---5---8---3--
E:|--x---x---x---1--

Pre-chorus: G, F, A#

E:|--3---1---6--
B:|--3---1---6--
G:|--4---2---7--
D:|--5---3---8--
A:|--5---3---8--
E:|--3---1---6--

Chorus: C, Ami, F, G

E:|--0---0---1---3--
B:|--1---1---1---3--
G:|--0---2---2---4--
D:|--2---2---3---5--
A:|--3---0---3---5--
E:|--x---x---1---3--

2