Naučit se

19. 9. 2019

: Walking in the air

We're walking in the air
We're floating in the moonlit sky
The people far below are sleeping as we fly

We're holding very tight
I'm riding in the midnight blue
I'm finding I can fly so high above with you

On across the world
The villages go by like dreams
The rivers and the hills, the forests and the streams

*: Children gaze open mouth
Taken by surprise
Nobody down below believes their eyes

We're surfing in the air
We're swimming in the frozen sky
We're drifting over icy mountains floating by

*: Suddenly swooping low
On an ocean deep
Rousing up a mighty monster from his sleep

And walking in the air
We're dancing in the midnight sky
And everyone who sees us greets us as we fly
1

: Zombie

1. Em 
Anot-her 
C 
head hangs lowly, 
G 
child is slowly, tak
D 
en

Em 
And the violence, 
C 
caused such silence, 
G 
who are we mi
D 
staken 


But you Em 
see, it's not me, it's not 
C 
my family 

In your G 
head, in your head they are figh
D 
ting 

With their Em 
tanks and their bombs and their 
C 
bombs and their guns 

In your G 
head, in your head they are cry
D 
ing 


Ref: [: In your Em 
head, in your 
C 
heead 

ZomG 
bie, Zombie, Zom
D 
bie-ie-ie-ie :]


*: Oh, Du du du du…

2. Another mother's breaking, heart's taking over 
When the violence, causes silence, we must be mistaken 

It's the same old thing since 1916
in your head, in your head, they'r still fighting.  
With their tanks and their bombs and their bombs and their guns 
In your head, in your head, they are dy-ing. 

Ref: In your head…
2

: Vincent (text)

1. Starry, starry night
Paint your palette blue and gray
Look out on a summer's day
With eyes that know the darkness in my soul…
Shadows on the hills
Sketch the trees and the daffodils
Catch the breeze and the winter chills
In colors on the snowy linen land.

R: Now I understand
What you tried to say, to me
And how you suffered for your sanity
And how you tried to set them free:
They would not listen; they did not know how --
Perhaps they'll listen now.

2. Starry, starry night
Flaming flowers that brightly blaze
Swirling clouds in violet haze
Reflect in Vincent's eyes of china blue
Colors changing hue
Morning fields of amber grain
Weathered faces lined in pain
Are soothed beneath the artist's loving hand.

R: Now I understand ….
3. For they could not love you
But still, your love was true
And when no hope was left inside
On that starry, starry night
You took your life as lovers often do --
But I could've told you, Vincent:
This world was never meant
For one as beautiful as you.

4. Starry, Starry night
Portraits hung in empty halls
Frameless heads on nameless walls
With eyes that watch the world and can't forget
Like the strangers that you've met
The ragged men in ragged clothes
The silver thorn, a bloody rose
Lie crushed and broken on the virgin snow.

R: Now I think I know
What you tried to say, to me
And how you suffered for your sanity
And how you tried to set them free:
They would not listen; they're not listening still --
Perhaps they never will.
3

: You've got a Friend

1. When you're down and troubled
and you need a helping hand,
and nothing, whoa nothing is going right.
Close your eyes and think of me
and soon I will be there
to brighten up even your darkest nights.

R: You just call out my name,
and you know wherever I am
I'll come running, oh yeah baby
to see you again.
Winter, spring, summer, or fall,
all you got to do is call
and I'll be there, yeah, yeah, yeah.
You've got a friend.

2. If the sky above you
should turn dark and full of clouds
and that old north wind should begin to blow
Keep your head together and call my name out loud now
and soon I'll be knocking upon your door.

R: You just call out my name and you know where ever I am
I'll come running to see you again.
Winter, spring, summer or fall
all you got to do is call
and I'll be there, yeah, yeah, yeah.

Hey, ain't it good to know that you've got a friend?
People can be so cold.
They'll hurt you and desert you.
Well they'll take your soul if you let them.
Oh yeah, but don't you let them.

You just call out my name and you know wherever I am
I'll come running to see you again.
Oh babe, don't you know that,
Winter spring summer or fall,
Hey now, all you've got to do is call.
Lord, I'll be there, yes I will.
You've got a friend.
You've got a friend.
Ain't it good to know you've got a friend.
Ain't it good to know you've got a friend.
You've got a friend.
4

: Skončil další fet

1. SkoEm 
nčil další fe
Hm 
t pro
D#dim 
minentních ho
Em 
stí,

G 
zy měly sl
Edim 
et, také ví
Hm 
na bylo dosti,

všichni C 
kouzel
Em7/H 
ní a krás
Am 
ní, 
Am/G 
každej ztěle
F 
sně
Esus4 
ná ctn
D 
ost,
D#dim 
 

byEm 
l to príma fe
Hm 
t, já
D#dim 
 byl také ho
Em 
st.
D6 Cmaj7 D6 
 


2. Byl to dobrej fet, prsty na hmatníku
běhaly tam a zpět, víno sládlo na jazyku,
každej prožil velkou lásku, každej, kdo ji prožít chtěl,
byl to príma fet, mládí patří svět.

3. Byl to dobrej fet a ty jsi na mě zbyla
a já ti hlavu splet' hloupou písní na tři kila
plnou krásných rýmů, plnou krásných slov,
byl to príma fet, byl to príma lov.

4. Byl to božskej fet, prostě cesta napříč rájem,
máme svůj vlastní svět, ve kterém si rádi hrajem,
nejraději na tichou poštu, kdo co řekl, kdo s kým spal,
byl to príma fet, jenže mi něco vzal …
E|--0-7-5-2-2h3-2-0-2---|----7-5--------------|
H|--------------------3-|--5-----7-7/8-5-7----|
G|----------------------|------------------7--|
D|----------------------|---------------------|
A|----------------------|---------------------|
E|----------------------|--0-----0-0-----0----|
5

: The Dragonborn Comes

1. Our Hero, our Hero, claims a warrior's heart
I tell you, I tell you, the Dragonborn comes
With a voice wielding power of the ancient Nord arts
Believe, believe, the Dragonborn comes

2. It's an end to the evil of all Skyrim's foes
Beware, beware, the Dragonborn comes
For the darkness has passed, and the legend yet grows
You'll know, you'll know, the Dragonborn's come

R: Dragonborn, Dragonborn By his honor is sworn
To keep evil forever at bay
And the fierce foe rout When they hear triumph's shout
Dragonborn, Dragonborn, for your blessing we pray

3. = 1.

4. = 2.

R: Dovahkiin, Dovahkiin Naal ok zin los vahriin
Wah dein vokul mahfaeraak ahst vaal
Ahrk fin norok paal graan Fod nust hon zindro zaan
Dovahkiin, Dovahkiin, fah hin kogaan mu draal
6

: I See the Light

1. All those days watching from the windows
All those years outside looking in
All that time never even knowing
Just how blind I've been

2. Now I'm here blinking in the starlight
Now I'm here suddenly I see
Standing here it's all so clear
I'm where I'm meant to be

R: And at last I see the light
And it's like the fog has lifted
And at last I see the light
And it's like the sky is new
And it's warm and real and bright
And the world has somehow shifted

*: All at once everything looks different
Now that I see you

3. All those days chasing down a daydream
All those years living in a blur
All that time never truly seeing
Things, the way they were

4. Now she's here shining in the starlight
Now she's here suddenly I know
If she's here it's crystal clear
I'm where I'm meant to go

R: And at last I see the light
And it's like the fog has lifted
And at last I see the light
And it's like the sky is new
And it's warm and real and bright
And the world has somehow shifted

*: All at once everything is different
Now that I see you
Now that I see you
7

: The Unforgiven

guitar 1
|------------------------------------------|
|--0-------0-------0-------1-------1-------|
|----2-------2-------2-------2-------2-----|
|------2-------2-------2-------2-------2---|
|--0---------------------------------------|
|------------------------------------------|
|guitar 2 
|------------------------------------------|
|------------------------------------------|
|-------------------2--4--4h5---5--4--2~~~-|
|------------------------------------------|
|------------------------------------------|
|------------------------------------------|

1. Ami 
New blood joins this 
Emi 
earth

and D 
quickly he's sub-
Ami 
dued.

Through constant pain disgrace,
the young boy learns their rules.
With time the child draws 
in this whipping boy done wrong.
Deprived of all his thoughts,

*: the D 
young man struggles 
Ami 
on and on.

He knows, oo, a C 
vow unto

his G 
own that 
C 
never from this 
G 
day

his C 
will they'll take a - 
G 
way.
E 
 
Ref: Ami 
What I've 
C 
felt, what I've 
G 
known never

Emi 
shined through in what I've 
Ami 
shown.

Ami 
Never 
C 
be. Never 
G 
see.

Won't E 
see what might have 
Ami 
been.


What I've felt, what I've known, never 
shined through in what I've shown.
Never free. Never me.
So I dub the unforgiven.

2. They dedicate their lives
to running all of his
He tries to please them all,
this bitter man he is
Throughout the life the same,
he's battled constantly
This fight he cannot win.

*: A tired man they see no longer cares.
The old man then 
prepares to die regretfully
That old man here is me.

R: What I've felt what I've known …
8

: Jubilee Street

On Jubilee street there was a girl named Bee
She had a history, but she had no past
When they shut her down the Russians moved in
Now I am too scared 
I am too scared to even walk on past

She used to say:
All those good people down on Jubilee Street
They ought to practice what they preach
Here they are to practice just what they preach
Those good people on Jubilee Street
And here I come up the hill
I’m pushing my own wheel of love
I got love in my tummy and a tiny little pain
And a ten ton catastrophe on a 60 pound chain
And I’m pushing my wheel of love up Jubilee Streets
And look at me now

The problem was she had a little black book
And my name was written on every page
Well a girl’s gotta make ends meet
Even down Jubilee Street
I was out of place and time, and over the hill, and out of my mind
On Jubilee Street
I oughta ṗractice what I preach
These days I go downtown in my tie and tails
I got a foetus on the leash

I am alone now, I am beyond recriminations
Curtains are shut, the furniture is gone
I’m transforming, I’m vibrating, I’m glowing
I’m flying, look at me now
I’m flying, look at me now
9

: A Soalin'

e|-----0-----2-----3--2--0-----0-----2-----3--5--7-------|  (CAPO II)
B|--0-----0-----0-----------0-----0-----0----------------|
G|-------------------------------------------------------|
D|-------------------------------------------------------|
A|-------------------------------------------------------|1
E|-------------------------------------------------------|

e|-----0-----2-----3--2--0-----0-----2-----0-----0-------|
B|--0-----0-----0-----------0-----0-----3----------------|
G|-------------------------------------------------------|
D|-------------------------------------------------------|
A|-------------------------------------------------------|2
E|-----------------------------------------3--2--0-------|

e|-----0-----2-----3--2--0-----0-----2-----3--5--7-------|
B|--0-----0-----0-----------0-----0-----0----------------|
G|-------------------------------------------------------|
D|-----2-----0-------------------------------------------|
A|-----------------3--2--3-----2-----0-------------------|3
E|-----------------------------------------3--2--0-------|

e|-----0-----2-----3--2--0-----0-----2-----0-----0-------|
B|--0-----0-----0-----------0-----0-----3----------------|
G|-------------------------------------------------------|
D|-----2-----0-------------------------------------------|
A|-----------------3--2--3-----2-----0-------------------|4
E|-----------------------------------------3--2--0-------|

e|-7----5-----3----2----0---7----5-----3----7----5--------|
B|----0----0-----0-------------0----0---------------------|
G|--------------------------------------------------------|
D|--------------------------------------------------------|
A|-5----4-----2----0----0---5----4-----2----5----4--------|5
E|--------------------------------------------------------|

e|-7----5-----3----2----0---3----2-----0-------12*--------|
B|----0----0-----0-------------0----3------0--------------|
G|--------------------------------------------------------|
D|----------------------------------0---------------------|
A|-5----4-----2----0----0---2----0-----2------------------|6
E|--------------------------------------------------------|

e|-12------10------8-----7---8-----7-----5------3--------|
B|-----0-------0------0---------0-----0-----0------0-----|
G|-------------------------------------------------------|
D|-10-------9------7-----5---7-----5-----4------2--------|
A|-------------------------------------------------------|7
E|-------------------------------------------------------|

e|-7----5-----3----2----0---3----2-----0-------12*--------|
B|----0----0-----0-------------0----3------0--------------|
G|--------------------------------------------------------|
D|----------------------------------0---------------------|
A|-5----4-----2----0----0---2----0-----2------------------|8
E|--------------------------------------------------------|

e|-----0-----2-----3--2--0-----0-----2-----3--5--7-------|
B|--0-----0-----0-----------0-----0-----0----------------|
G|-------------------------------------------------------|
D|-----2-----0-------------------------------------------|
A|-----------------3--2--3-----2-----0-------------------|9
E|-----------------------------------------3--2--0-------|

e|-7---8------10---12---12---10---8---7---4---6---8---9---12|
B|--------10--------------------------------------------12--|
G|----------------------------------------------------------|
D|-----7-------9--------------------------------------------|
A|----------------------10----9---7---5---2---5---7---0-----|10
E|----------------------------------------------------------|
1. Hey, ho, nobody home,meat, nor drink, nor money have I none
can't you, we be merry, hey ho, nobody home.
Hey, ho, nobody home,meat, nor drink, nor money have I none
can't you, we be merry, hey ho, nobody home.

R: A soulin, a soulin, a soulin cake Please, good missus, a soulin cake
An apple, a pear, a plum or a cherry Any good thing to make us all merry
One for Peter, two for Paul Three for Him who made us all

2. God Bless the master of this house, the mistress also
And all the little children who around your table grow
the cattle in your stable, the dog at your front door.
And all that dwells within your gates we wish you ten times more

R: 

3. Go down into your cellor, and see what you can find,
if the barrels are all empty we hope you will be kind.
with the apple in your sill, and the pumpkin in your chair
We won't come no more till this time next year

R: 

4. The streets are very dirty and my shoes are very thin
I've got a little pocket I can put a penny in
If you haven't got a penny, a ha' penny will do
If you haven't got a ha' penny, then God bless you.

R: 

5. To the lord and praises, to all the angels and saints,
and to loving brotherhood, each other now embrace,
if only be kind and pray for us. time has come, enjoy.
10

: Goodbye Blue Sky (Text)

Oooooh 
Oooooh
Oooooh

Did, did, did, did you see the frightened ones 
Did, did, did, did you hear the fallings bombs 
Did, did, did, did you ever wonder 
why we had to run for shelter 
When the promise of brave new world 
unfurled beneath a clear blue sky 

Oooooh
Oooooh

Did, did, did, did you see the frightened ones 
Did, did, did, did you hear the fallings bombs 
The flames are all long gone 
but the pain lingers on 

Goodbye blue sky 
Goodbye blue sky 
Goodbye
Goodbye
11

: Road Trippin' (Text)

Road trippin' with my two favorite allies 
Fully loaded we got snacks and supplies 
It's time to leave this town, it's time to steal away 
Let's go get lost anywhere in the U.S.A. 
Let's go get lost, let's go get lost… 

Blue you sit so pretty west of the one 
Sparkle light with yellow icing just a mirror for the sun 
Just a mirror for the sun 
Just a mirror for the sun 
These smiling eyes are just a mirror for… 

So much as come before those battles lost and won 
This life is shining more forever in the sun 
Now let us check our heads and let us check the surf 
Staying high and dry's more trouble than it's worth in the sun 

Just a mirror for the sun 
Just a mirror for the sun 
These Smiling eyes are just a mirror for… 

In Big Sur we take some time to linger on 
We three hunky dory's got our snakefinger on 
Now let us drink the stars, it's time to steal away 
Let's go get lost right here in the U.S.A. 
Let's go get lost, let's go get lost… 

Blue you sit so pretty west of the one 
Sparkle light with yellow icing just a mirror for the sun 

Just a mirror for the sun 
Just a mirror for the sun 
These smiling eyes are just a mirror for… 
These smiling eyes are just a mirror for… 
Your smiling eyes are just a mirror for…
12

: Englishman in New York

I don't drink coffee, I take tea my dear
I like my toast done on one side
And you can hear it in my accent when I talk
I'm an Englishman in New York

See me walking down Fifth Avenue
A walking cane here at my side
I take it everywhere I walk
I'm an Englishman in New York

I'm an alien I'm a legal alien
I'm an Englishman in New York
I'm an alien I'm a legal alien
I'm an Englishman in New York

If, „Manners maketh man” as someone said
Then he's the hero of the day
It takes a man to suffer ignorance and smile
Be yourself no matter what they say
I'm an alien I'm a legal alien
I'm an Englishman in New York
I'm an alien I'm a legal alien
I'm an Englishman in New York

Modesty, propriety can lead to notoriety
You could end up as the only one
Gentleness, sobriety are rare in this society
At night a candle's brighter than the sun

Takes more than combat gear to make a man
Takes more than a license for a gun
Confront your enemies, avoid them when you can
A gentleman will walk but never run

If, „Manners maketh man” as someone said
Then he's the hero of the day
It takes a man to suffer ignorance and smile
Be yourself no matter what they say
Be yourself no matter what they say
Be yourself no matter what they say

I'm an alien I'm a legal alien
I'm an Englishman in New York
I'm an alien I'm a legal alien
I'm an Englishman in New York
13

: Fragile

If blood will flow when flesh and steel are one 
Drying in the colour of the evening sun 
Tomorrow's rain will wash the stains away 
But something in our minds will always stay.
Perhaps this final act was meant 

To clinch a lifetime's argument 
That nothing comes from violence 
and nothing ever could 
For all those born beneath an angry star 
Lest we forget how fragile we are 

On and on the rain will fall 
Like tears from a star 
Like tears from a star  
On and on the rain will say 
How fragile we are 
How fragile we are 

On and on the rain will fall 
Like tears from a star 
Like tears from a star 
On and on the rain will say 

How fragile we are 
How fragile we are 
How fragile we are 
How fragile we are
14

: Shape of my heart

He deals the cards as a meditation
And those he plays never suspect
He doesn't play for the money he wins
He don't play for respect

He deals the cards to find the answer
The sacred geometry of chance
The hidden law of a probable outcome
The numbers lead a dance

I know that the spades are the swords of a soldier
I know that the clubs are weapons of war
I know that diamonds mean money for this art
But that's not the shape of my heart

He may play the jack of diamonds
He may lay the queen of spades
He may conceal a king in his hand
While the memory of it fades

I know that the spades are the swords of a soldier
I know that the clubs are weapons of war
I know that diamonds mean money for this art
But that's not the shape of my heart
That's not the shape
The shape of my heart
If I told her that I loved you
You'd maybe think there's something wrong
I'm not a man of too many faces
The mask I wear is one

But those who speak know nothing
And find out to their cost
Like those who curse their luck in too many places
And those who fear are lost

I know that the spades are the swords of a soldier
I know that the clubs are weapons of war
I know that diamonds mean money for this art
But that's not the shape of my heart
That's not the shape of my heart
That's not the shape
The shape of my heart
15