ntz

30. 11. 2021

: Borne On The FM Waves Of The Heart

intro: E5
sloka: E5 C#5 A

E:|-----------
B:|-------2---
G:|-5--6--2---
D:|-7--6--2---
A:|-7--4--0---
E:|-----------

bridge: E5 C#5 A

E:|-----------------|-----------------|-----------------|-----------------|
B:|-----------------|-----------------|-----------------|-----------------|
G:|-9-9-9-9-9-9-9-9-|-9-9-9-----------|-6-6-6-6-6-6-6---|-6-6-6-6-6-6-6---|
D:|-9-9-9-7-7-7-7-7-|-6-6-6-4-4-4-4-4-|-6-6-6-6-6-6-6-4-|-6-6-6-6-6-6-6-4-|
A:|-7-7-7-7-7-7-7-7-|-7-7-7-7-7-7-7-7-|-4-4-4-4-4-4-4-4-|-4-4-4-4-4-4-4-4-|
E:|-----------------|-----------------|-----------------|-----------------|

E:|-----------------|-----------------|-----------------|-----------------|
B:|-----------------|-----------------|-----------------|-----------------|
G:|-6-6-6-6-6-6-6-6-|-2-2-2-----------|-6-----6-----6---|-6-----6-----6---|
D:|-6-6-6-4-4-4-4-4-|-2-2-2-1-1-1-----|-7-7-7-7-7-7-7-7-|-7-7-7-7-7-7-7-7-|
A:|-4-4-4-4-4-4-4-4-|-4-4-4-4-4-4-6~~~|-7-7-7-7-7-7-7-7-|-7-7-7-7-7-7-7-7-|
E:|-----------------|-----------------|-5-5-5-5-5-5-5-5-|-5-5-5-5-5-5-5-5-|

refren: Bsus4 C#sus2 Asus2

E:|---0-----0-----0-|---0-----0-----0-|---0-----0-----0-|---0-----0-----0-|
B:|-0---0-0---0-0---|-0---0-0---0-0---|-0---0-0---0-0---|-0---0-0---0-0---|
G:|-4-----4-----4---|-4-----4-----4---|-6-----6-----6---|-2-----2-----2---|
D:|-4-----4-----4---|-4-----4-----4---|-6-----6-----6---|-2-----2-----2---|
A:|-2-----------2---|-2-----------2---|-4-----------4---|-0-----------0---|
E:|-----------------|-----------------|-----------------|-----------------|

post-ref: B A

E:|-----------------|-----------------|-----------------|-----------------|
B:|-----------------|-----------------|-----------------|-----------------|
G:|-----------------|-----------------|-6-----6-----6---|-6-----6-----6---|
D:|-9-9-9-9-11111111|-7-7-7-7-7-7-7-7-|-7-7-7-7-7-7-7-7-|-7-7-7-7-7-7-7-7-|
A:|-9-9-9-9-11111111|-x-x-x-x-x-x-x-x-|-7-7-7-7-7-7-7-7-|-7-7-7-7-7-7-7-7-|
E:|-7-7-7-7-7-7-7-7-|-7-7-7-7-7-7-7-7-|-5-5-5-5-5-5-5-5-|-5-5-5-5-5-5-5-5-|

intro
sloka 2×
bridge
sloka 2×
refren 3×
post-ref
sloka 2×
refren 3×
pos-ref
bridge 2×
refren 3×
post-ref 1/2 2×
post-ref

No, it's not what we meant to say.
We don’t really love each other.
What happens when the summer’s over?
How long before distance becomes a chore?
I'm approaching with great, great trepidation.
I hope you’ll understand.

Before you speak think about what you're trying to say.
Who else is there to blame for miscommunication?
You're getting caught up in the excitement.
You making promises you can’t keep.
You need to leave all your options open.

Too much momentum.
This room feels like it's going to explode.
Too many angles.
Too many factors to cover.
Waiting for signal.
You're searching for network.
You have to fight to stay in control of the situation.

Anxiety, Anxiety you give me no mercy.
Grind my teeth smooth and flat in my sleep.
We took some pills to calm us down.
Then we needed help to come back up.
Just trying to stay in control of the situation.

Too much momentum.
This room feels like it's going to explode.
Too many angles.
Too many factors to cover.
Waiting for signal.
You're searching for network.
You have to fight to stay in control of the situation.
They fall apart so easily.

Too much momentum.
This room feels like it's going to explode.
Too many angles.
Too many factors to cover.
Waiting for signal.
You're searching for network.
You have to fight to stay in control.
You have to fight to stay in control.
No, you don’t have to fight to stay in control of the situation.
1

: I Wanna Be Warhol

Am F C C 
Am F G G 

1. Am 
I wanna be a little piece of histo
F 
ry, let's 
C D 
go

Am 
I wanna be a painting for all to see
F 
, let's 
C D 
go

Am 
Take a trip, take a big hand full of 
F 
these and 
C D 
swallow

Am 
Just a headache, a 
F 
fuzzy memo
G 
ry tomorrow


R: C 
I wanna be a Warhol 
Am 
hanging on your wall

G 
You down there looking up at 
F 
me

C 
I wanna be a Warhol 
Am 
displayed on your wall

G 
Hung up there staring back at 
F 
you

Staring back at you

Am F C C 
Am F G G 

2. Give me a taste of your misery, let's go
Won't you please come play chemistry and sorrow
I can't believe anything that you're telling me, let's go
The walls are closing in and melting nice and slow

R: I wanna be a Warhol hanging on your wall
You down there looking up at me
I wanna be a Warhol displayed on your wall
Hung up and staring back at you
Staring back at you

Am Am F C 
Am Am F D 
Am Am F C 
Am Am F G 
G G 

R: C Am G F 

R: I wanna be a Warhol hanging on your wall
Staring down at you
I wanna be a Warhol displayed on your wall
Still hung up on you

Still hung up on Am 
you
F G 
 

Still hung up on Am 
you


Am F C D G

guitar2: 

Intro: Am, F, C, C | Am, F, G, G

E:|--------------------------|--------------------------|--------------------------|--------------------------|
B:|--------------------------|--------------------------|--------------------------|--------------------------|
G:|--9--9--9--9--9--9--9--9--|--12-12-12-12-12-12-12-12-|--12-12-12-12-12-12-12-12-|--10-10-10-10-10-10-10-10-|
D:|--10-10-10-10-10-10-10-10-|--10-10-10-10-10-10-10-10-|--10-10-10-10-10-10-10-10-|--10-10-10-10-10-10-10-10-|
A:|--0--0--0--0--0--0--0--0--|--8--8--8--8--8--8--8--8--|--x--x--x--x--x--x--x--x--|--x--x--x--x--x--x--x--x--|
E:|--------------------------|--------------------------|--8--8--8--8--8--8--8--8--|--8--8--8--8--10-10-10-10-|

E:|--------------------------|--------------------------|--------------------------|--------------------------|
B:|--------------------------|--------------------------|--------------------------|--------------------------|
G:|--9--9--9--9--9--9--9--9--|--12-12-12-12-12-12-12-12-|--12-12-12-12-12-12-12-12-|--12-12-12-12-12-12-12-12-|
D:|--10-10-10-10-10-10-10-10-|--10-10-10-10-10-10-10-10-|--12-12-12-12-12-12-12-12-|--12-12-12-12-12-12-12-12-|
A:|--0--0--0--0--0--0--0--0--|--8--8--8--8--8--8--8--8--|--10-10-10-10-10-10-10-10-|--10-10-10-10-10-10-10-10-|
E:|--------------------------|--------------------------|--------------------------|--------------------------|

Verse: 3× Am, Am, F, C D | Am, F, G, G

E:|--------------------------|--------------------------|--------------------------|--------------------------|
B:|--------------------------|--------------------------|--------------------------|--------------------------|
G:|--9--9--9--9--9--9--9--9--|--10-10-10-10-9--9--9--9--|--12-12-12-12-12-12-12-12-|--12-12-12-12-12-12-12-12-|
D:|--10-10-10-10-10-10-10-10-|--10-10-10-10-10-10-10-10-|--10-10-10-10-10-10-10-10-|--10-10-10-10-10-10-10-10-|
A:|--0--0--0--0--0--0--0--0--|--0--0--0--0--0--0--0--0--|--8--8--8--8--8--8--8--8--|--x--x--x--x--x--x--x--x--|
E:|--------------------------|--------------------------|--------------------------|--8--8--8--8--10-10-10-10-|

E:|--------------------------|--------------------------|--------------------------|--------------------------|
B:|--------------------------|--------------------------|--------------------------|--------------------------|
G:|--9--9--9--9--9--9--9--9--|--10-10-10-10-10-10-10-10-|--12-12-12-12-12-12-12-12-|--12-12-12-12-12-12-12-12-|
D:|--10-10-10-10-10-10-10-10-|--10-10-10-10-10-10-10-10-|--12-12-12-12-12-12-12-12-|--12-12-12-12-12-12-12-12-|
A:|--0--0--0--0--0--0--0--0--|--8--8--8--8--8--8--8--8--|--10-10-10-10-10-10-10-10-|--10-10-10-10-10-10-10-10-|
E:|--------------------------|--------------------------|--------------------------|--------------------------|

Chorus: 2× C, Am, G, F

E:|--------------------------|--------------------------|--------------------------|--------------------------|
B:|--------------------------|--------------------------|--------------------------|--------------------------|
G:|--5--5--5--5--5--5--5--5--|--4--4--4--4--5--5--5--5--|--5--5--5--5--5--5--5--5--|--4--4--4--4--5--5--5--5--|
D:|--5--5--5--5--5--5--5--5--|--5--5--5--5--5--5--5--5--|--5--5--5--5--5--5--5--5--|--5--5--5--5--5--5--5--5--|
A:|--3--3--3--3--3--3--3--3--|--3--3--3--3--3--3--3--3--|--0--0--0--0--0--0--0--0--|--0--0--0--0--0--0--0--0--|
E:|--------------------------|--------------------------|--------------------------|--------------------------|

E:|--------------------------|--------------------------|--------------------------|--------------------------|
B:|--------------------------|--------------------------|--------------------------|--------------------------|
G:|--5--5--5--5--5--5--5--5--|--4--4--4--4--5--5--5--5--|--2--2--2--2--2--2--2--2--|--2--2--2--2--2--2--2--2--|
D:|--5--5--5--5--5--5--5--5--|--5--5--5--5--5--5--5--5--|--3--3--3--3--3--3--3--3--|--3--3--3--3--3--3--3--3--|
A:|--x--x--x--x--x--x--x--x--|--x--x--x--x--x--x--x--x--|--3--3--3--3--3--3--3--3--|--3--3--3--3--3--3--3--3--|
E:|--3--3--3--3--3--3--3--3--|--3--3--3--3--3--3--3--3--|--1--1--1--1--1--1--1--1--|--1--1--1--1--1--1--1--1--|

Bridge: Am, Am, F, C | Am, Am, F, D | Am, Am, F, C | Am, Am, F, G | G, G, G

E:|--Am-F--C--D--G---
B:|------------------
G:|--9--12-12-12-12--
D:|--10-10-10-10-12--
A:|--0--8--x--x--10--
E:|--------8--10-----

Riff: 

E:|--------------------------|--------------------------|--------------------------|--------------------------|
B:|--------------------------|--------------------------|--------------------------|--------------------------|
G:|--------5--------4--------|--------5--------4--------|--------5--------4--------|--------10--------9-------|
D:|-----5--------5-----------|-----5--------5-----------|-----5--------5-----------|-----10--------10---------|
A:|--3--------3--------------|--0--------0--------------|--------------------------|--8---------8-------------|
E:|--------------------------|--------------------------|--3--------3--------------|--------------------------|
2

: Stačilo říct

@100bpm, CAPO 4

Ami G F C 


1. Ami 
 
G 
Vstávání, 
F 
Usínání
C 
 

Ami 
 
G 
Po nebi 
F 
lítání
C 
 

Ami 
 
G 
Dolů padání, 
F 
Hledání
C 
 

Ami 
 
G 
Nenacházení 
F 
ze sna blouzně
C 
ní, už nikdy 
Dmi 
neříkej: "jsi 
F 
mááá"


R: C 
Stačilo 
Gmi 
říct, že ty a 
F 
já jsme minulost pouhá

C 
Stačilo 
Gmi 
říct, že ty a 
F 
já už nejsme láska


{stop 5 doby}

2. Doteky dlaní, do rána milování
Vzpomínání
Zapomínání, v celým těle chvění
Nenávidění, už nikdy neříkej: "jsi mááá"
R: Stačilo říct, že ty a jááá jsme minulost pouhá
Stačilo říct, že ty a jááá už nejsme láska

R: Stačilo říct, stačilo říct, stačilo říct ..

R: Stačilo říct, že ty a jááá jsme minulost pouhá
Stačilo říct, že ty a jááá už nejsme láska

R: Stačilo říct, že ty a jááá jsme minulost dlouhá
Stačilo říct, že ty a jááá už nejsme láska nekonečná ..

Ami G F C 


sloka:  Ami 3 G F C
už-nikdy-neříkej:  Dmi F
refrén:  C 3 Gmi F
3

: Zabili, zabili

1. C 
Zabili, 
F 
zabili, 
Dmi 
chlapa z kolo
F 
čavy
C 
,

C 
řekněte 
F 
hrobaři, 
Dmi 
kde je pocho
F 
vaný?
C 
 


R: C 
Bylo tu není tu, 
F 
havrani na plotu 

C 
Bylo víno v sudě 
F 
teď tam voda bude

C 
není, 
F 
není tu
C 
 


2. Špatně ho zabili, špatně pochovali
vlci ho pojedli, ptáci rozklovali

R: Bylo tu není tu…

3. Vítr ho roznesl po dalekém kraji
havrani pro něho po poli krákají

R: Bylo tu není tu…

4. Kráká starý hravran, krákat nepřestane
dokud v Koločavě živý chlap zůstane

sloka:  3 C F 5 Dmi F C
refren: C F
4

: Bláznivá Zuzana

Intro
C D F C C D F C 

1. C 
Jako bláznivá 
D 
Zuzana co 
F 
poznává svět 
C 
z výšky

C 
přes mřížovaná 
D 
okna z 
F 
vypůjčené 
C 
knížky

Ami 
kde šílenci leží v 
G 
mřížích jak 
F 
lvové v kleci 
C 
jatí

Ami 
možná by chtěli k 
G 
nebesům, však 
F 
jsou se zemí 
C 
spjatí

C 
se zemí spjatí 
D F C 
 


2. Na ústavní půdě stojí Ikaros s amputací křídel
a k posteli přivázanej Koperník, když na stropě hvězdu viděl
a za nimi v řadě stojí Kolumbus, co objevil Ameriku
dneska ráno na trávníku před domem, když vedli ho ven

R: [: Kam teda C 
plout, když v lodi je 
Emi 
díra a kam 
F 
letět, když vzali ti 
G 
křídla

lehnout si C 
pod zem a zůstat 
Emi 
sám 
F 
tebe lásko tady nene
G 
chám :]

tady neneC 
chám


3. Nad námi prolétává linka z Prahy až do Varšavy
a zřízenci počítaj ovečky a kontrolujou stavy
Ami 
bláznivá Zuzana 
Emi 
chodí do zahrady a 
C 
prstem maluje "vrať se 
G 
mi"

Ami 
bláznivá Zuzana 
Emi 
staví z písku hrady a 
C 
prstem maluje "vrať se 
G 
mi"

já jsem C 
tady


R: [: Kam teda plout, když v lodi je díra a kam letět, když vzali ti křídla
lehnout si pod zem a zůstat sám, tebe lásko tady nenechám :]
A kam teda plout a kam letět, komu zpívat a pro koho brečet
Kam teda plout a kam letět, pro koho žít…
+ jako C 
bláznivá 
D 
Zuzana co 
F 
poznává svět z 
C 
výšky…
5

: Nad stádem koní

@155bpm

1. D 
Nad stádem 
A4 
koní
A Em 
 
podkovy G 
zvoní, zvoní,

D 
černý vůz vle
A4 
čou
A Em 
 
a slzy G 
tečou. A já volám:

D 
"Tak neplač, m
A4 
ůj 
A 
kamaráde,
Em 
 
 náhoda je G 
blbec, když krade."

D 
Je tuhý jak 
A4 
veka a 
A 
 
řeka ho splaví.Em 
 
 Máme ho G 
rádi. No tak 
C 
co, tak 
G 
co, tak 
A4 
co?


2. D 
Vždycky si př
A4 
ál, 
A 
až bude popel,
Em 
 
 i s kytaG 
rou

D 
vodou ať pla
A4 
vou, j
A 
en žádný hot
Em 
el, s křížkem nad hla
G 
vou.

D 
Až najdeš mís
A4 
to, 
A 
kde je ten pramen
Em 
 
 a kámen, co prasG 
ká,

D 
budeš mít jis
A4 
to, 
A 
patří sem pope
Em 
l a každá 
G 
láska. No tak 
C 
co, tak 
G 
co, tak 
A4 
co?


3. D 
Nad stádem 
A4 
koní
A 
  
Em 
 podkovy 
G 
zvoní, zvoní,

D 
černý vůz vle
A4 
čou
A 
  
Em 
 a slzy te
G 
čou. A já šeptám:

D 
Vysyp ten pope
A4 
l, 
A 
kamaráde,
Em 
 do bílé 
G 
vody, vody,

D 
vyhasnul kote
A4 
l a 
A 
náhoda je 
Em 
štěstí od podko
G 
vy. 
D G D G 
 


Vysyp ten D 
popel, 
A 
kamará
G 
de, do bílé 
D 
vody, 
A 
do vo
G 
dy,

vyhasnul D 
kotel a 
A 
náhoda je
Em 
 štěstí od podko
G 
vy.

Vysyp ten popel, kamaráde, do bílé vody, do vody,
vyhasnul kotel a náhoda je štěstí od podkovy.  
Vysyp ten popel, kamaráde, do bílé vody, do vody,
vyhasnul kotel a náhoda je štěstí od podkovy.

sloka:  D Dsus2 Asus4 Asus2 Emi G
bridge:  C G A
outro:  D Asus4 G
D Asus4 Emi G
phrasing: 1 D, 2 Dsus2, 3 Asus4, 4 Asus2, 5-6 Emi, 7-8 G
6

: I can't be with you

capo: 3

G D Em C 

G 
Lying in my 
D 
bed again

And I Em 
cry 'cause you're not 
C 
here

Crying in my head again
And I know that it's not clear
Put your hands, put your hands
Inside my face and see that it's just you
But it's bad and it's mad
And it's making me sad
Because I can't be with you

Be with you, be with you
Be with you, be with you
Be with you, be with you
Baby, I can't be with you

Thinking back on how things were
And on how we loved so well
I wanted to be the mother of your child
And now it's just farewell

Put your hands in my hands
And come with me
We'll find another end
And my head, and my head
On anyone's shoulder
'Cause I can't be with you

Be with you, be with you
Be with you, be with you
Be with you, be with you
Baby, I can't be with you

'Cause you're not here, you're not here
Baby, I can't be with you
'Cause you're not here, you're not here
Baby, I'm still in love with you

arpeggio: pozor, capo 3
E:|----------------------------------------------------------------------------|-
B:|----------------------------------------------------------------------------|-
G:|-------0----------0---------0-------0--------0-------0--------0-------0-----|-
D:|----12---12----12---12----7---7---7---7----9---9---9---9----5---5---5---5---|-
A:|-10---------10----------5-------5--------7-------7--------3-------3---------|-
E:|-G----------------------D----------------Em---------------C-----------------|-
7

: Just my imagination

G D Ami Emi D 

1. G 
There was a game we used to 
D 
play

We would Ami 
hit the town on Friday night

And Emi 
stay in bed 
D 
until Sunday

We used to be so free
We were living for the love we had and
Living not for reality

R: Just my imagination
Just my imagination
Just my imagination
It was …

2. There was a time I used to pray
I have always kept my faith in love
It's the greatest thing from the man above
The game I used to play
I've always put my cards upon the table
Let it never be said that I'd be unstable

R: Just my imagination …

3. There is a game I like to play
I like to hit the town on Friday night
And stay in bed until Sunday
We'll always be this free
We will be living for the love we have
Living not for reality

It's not my imagination
It's not my imagination
It's not my imagination
It was …

E:|-----------------|-----------------|------------------|------------------|
B:|-----------------|-----------------|------------------|------------------|
G:|-----------------|-7-7-x-7-x-7-9-7-|-\5-5-x-5-x-5-7-5-|------------------|
D:|-5-5-x-5-x-5-7-9-|-----------------|------------------|-\9-9-9-7-x-7-9-5-|
A:|-----------------|-----------------|------------------|------------------|
E:|-G---------------|-D---------------|-Ami--------------|-Emi----D---------|

G D Ami Emi
8

: Ode to my family

capo: 2
intro: C Ami Emi Cadd4

C 
Understand
Ami 
 the things I 
Emi 
say

Don't Cadd4 
turn away from me

C 
'Cause I've spent 
Ami 
half my life out 
Emi 
there

You Cadd4 
wouldn't disagree


Do you see me? Do you see?
Do you like me?
Do you like me standing there?
Do you notice? Do you know?
Do you see me?
Do you see me? Does anyone care?

Unhappiness
Where's when I was young
And we didn't give a damn
'Cause we were raised
To see life as fun
And take it if we can

My mother, my mother
She hold me, she hold me
When I was out there
My father, my father
He liked me, oh, he liked me
Does anyone care?

Understand what I've become
It wasn't my design
And people everywhere think something
Better than I am

But I miss you, I miss
'Cause I liked it
'Cause I liked it when I was out there
Do you know this? Do you know
You did not find me?
You did not find. Does anyone care?

Unhappiness
Where's when I was young
And we didn't give a damn
'Cause we were raised
To see life as fun
And take it if we can

My mother, my mother
She hold me, she hold me
When I was out there
My father, my father
He liked me, oh, he liked me
Does anyone care?

Does anyone care?
Does anyone care?
Does anyone care?
Does anyone care?
Does anyone care?
Does anyone care?
Does anyone care?

akordy:  C Ami Emi Cadd4
intro: 

E:|--0----0-----|--0----0-----|-------0-----|--0----0-----|
B:|--1-------1--|--1-------1--|--0-------0--|--1-------1--|
G:|--0----------|--2----------|--0----------|--0----------|
D:|--2----------|--2----------|--2----------|--3----------|
A:|--3----------|--0----------|--2----------|--3----------|
E:|-------------|-------------|--0----------|-------------|

riff: 

E:|-----------------------------|-----------------------------|
B:|--1--------1--------1--------|--1--------1--------1--------|
G:|--0--0--------0--------0-----|--2--2--------2--------2-----|
D:|--2-----2--------2--------0--|--2-----2--------2--------0--|
A:|--3--------------------------|--0--------------------------|
E:|-----------------------------|-----------------------------|

E:|-----------------------------|-----------------------------|
B:|-----------0--------0--------|--1-------1---1--1---1-------|
G:|--0--0--------0--------0-----|--0--0----0p2-0--0p2-0--0----|
D:|--2-----2--------2--------0--|--3----3------------------0--|
A:|--2--------------------------|--3--------------------------|
E:|--0--------------------------|-----------------------------|
9

: Promises

Emi 
You'd better believe I'm coming

Hmi 
You'd better believe what I say

D 
You'd better hold on to your promises

C 
Because you bet you'll get what you deserve.


She's going to leave him over
She's going take her love away
So much for your eternal vows, well
It does not matter anyway.

Why can't you stay
Here a while
Stay here awhile
Stay with me.

Oh oh oh oh oh oh
All the promises we made
Promises we made
All the meaningless and empty words I broke
Broke broooke

Oh oh oh oh oh
All the promises we broke
Promises we broke
All the meaningless and empty words I spoke
Spoke spooooke

What of all the things that you taught me
What of all the things that you'd say
What of all your prophetic preaching
You're just throwing it all away

Maybe we should burn the house down
Have ourselves another fight
Leave the cobwebs in the closet
'Cause tearing them out is just not right

Why can't you stay
Here awhile
Stay here awhile
Stay with me

Oh oh oh oh oh
All the promises we made
Promises we made
All the meaningless and empty words I prayed
Prayed praaaayed

Oh oh oh oh oh
All the promises we broke
Promises we broke
All the meaningless and empty words I spoke
Spoke Spooooke

Oh oh oh oh oh
All the promises we made
Promises we made
All the meaningless and empty words I prayed
Prayed praaaayed

Oh oh oh oh oh
All the promises we broke
Promises we broke
All the meaningless and empty words I spoke
Spoke Spooooke

Oh hey oh hey oh hey …

riff: 16/8

E:|-----|-----2--------2--------2--|-----2--------2--------3--2--0-----|-----|
B:|-----|--------3--------3--------|--------3--------3--------------3--|-----|
G:|-----|--4--------4--------4-----|--2--------2--------2--------------|--5--|
D:|--2--|--4-----------------------|--0--------------------------------|--5--|
A:|--2--|--------------------------|-----------------------------------|--3--|
E:|--0--|--------------------------|-----------------------------------|-----|
10

: Last cup of sorrow

1. This is getting old and so are you
Everything you know and never knew
Will run through your fingers just like sand
Enjoy it while you can

Pre: Like a snake between two stones
It itches in your bones
Take a deep breath and swallow
Your sorrow
Tomorrow

Riff: So raise it up and let's propose a toast
To the thing that hurts you most

R: It's your last cup of sorrow
What can you say?
Finish it today
It's your last cup of sorrow
So think of me
And get on your way

2. It won't begin until you make it end
Until you know the how the where and the when
With a new face you might surprise yourself

Pre: Like a snake between two stones
It itches in your bones
Take a deeper breath and swallow
Your sorrow
Tomorrow

Riff: Raise it up and let's propose a toast
To the thing that hurts you most

R: It's your last cup of sorrow
What can you say?
Finish it today
It's your last cup of sorrow
So think of me
And get on your way

Out: You might surprise yourself
You might surprise yourself
You might surprise yourself
You might surprise yourself
You might surprise yourself
You might surprise yourself
You might surprise yourself
You might surprise yourself
You might surprise yourself
You might surprise yourself
You might surprise yourself
You might surprise yourself

Riff: 

E:|--G-----------Em----
B:|--------------------
G:|--------------------
D:|--5---5-5*-5*-2~~~~~
A:|--5---5-5*-5*-2~~~~~
E:|--3---3-3*-3*-0-----

Verse: 

E:|-G-------Em~~~~------------------
B:|---------------------------------
G:|---------------------------------
D:|---------------------------------
A:|---------------------------------
E:|-0*--0*--0*--0*--0*--0*--0*--0*--

Pre: 

E:|--A-------G-------|-A-------A#-------|
B:|------------------|------------------|
G:|------0-----0---0-|-----0-----0---0--|
D:|----7---7-5---5---|---7---7-8---8----|
A:|--0---------------|-0----------------|
E:|------------------|------------------|

R: 

E:|--0--0--0--0--
B:|--0--0--0--0--
G:|--8--6--4--6--
D:|--9--7--5--7--
A:|--9--7--5--7--
E:|--7--5--3--5--

Out: 

E:|--A-----------G-----------|-A-----------A#-----------|
B:|--------------------------|--------------------------|
G:|------0-----0-----0-----0-|-----0-----0-----0-----0--|
D:|----2-----2-----2-----2---|---7-----7-----7-----7----|
A:|--0-----0-----------------|-0-----0------------------|
E:|--------------3-----3-----|-------------6-----6------|
11

: Rovnou

G 
Tak už jsem ti teda 
G7 
fouk,

C 
prsten si dej za klo
G 
bouk,

C 
nechci tě 
D* 
znát a 
G 
neměl jsem tě 
E* 
rád
G* 
,

to ti říD7 
kám rov
G 
nou.


Rovnou jó tady rovnou,
rovnou jó tady rovnou,
prostě tě pic a nehledej mě víc,
to ti říkám rovnou.

Z Kentucky do Tennessee,
přes hory a přes lesy,
z potoků vodou já smejvám stopu svou,
to ti říkám rovnou.

3 G G7 C D7

pozn: akordy s hvězdičkou můžou/nemusí bejt, hraje druhá kytara
12

: Zátoka

V zátoce C 
malý je 
F 
celej den 
C 
stín, 

dneska je Ami 
tichá, já dobře 
C 
vím, 

kdy ten stín Ami 
zmizí i z duše mo
C 
jí, 

za vodou F 
čekám na lásku svo
C 
ji. 

2. Poslední dříví jsem na oheň dal, 
i kdyby nocí překrásně hřál, 
já nespím, to víš, jak bych si přál, 
proč si mě Hardy na práci vzal? 
3. Pomalu svítá a krávy jdou pít, 
v sedle zas musím celej den být, 
proč má tvůj tatík, ach, tolika stád, 
tejden už sháním a nemůžu spát 
4. Zítra se vrátím na jižní díl, 
v zátoce naší, tam bude můj cíl, 
vítr se zdvihá a měsíc je blíž, 
zítra stín zmizí, dobře to víš. 
13

: Amazonka

1. Byly krásný naše G 
plány, byla jsi můj celej 
Hm Bm Am 
svět.

Čas je vzal a nechal G 
rány, 
Am 
starší jsme jen o pár 
D 
let.


2. Tenkrát byly děti malý, ale život utíká.
Už na "táto" slyší jinej, i když si tak neříká.

R: Nebe modrý zrcadG 
lí se 

E7 
v řece, která všechno 
Ami 
ví, 

stejnou barvu jako G 
měly 

Ami 
tvoje oči džíno
D 
vý. 


3. Kluci tenkrát, co tě znali, všude, kde jsem s tebou byl,
"Amazonka" říkávali a já hrdě přisvědčil.

4. Tvoje strachy, že ti mládí pod rukama utíká
vedly k tomu, že ti nikdo "Amazonka" neříká.

R: Nebe modrý zrcadlí se…

5. Zlatý kráse cingrlátek, jak sis časem myslela
vadil možná trampskej šátek, nosit dáls' ho nechtěla.

R: Teď jsi víla z paneláku, samá dečka, samej krám,
já si přál jen, abys byla pořád stejná, přísahám.
Pořád stejná, přísahám…
14

: Malá Žužu

Intro: sólo, F#5 D5 E5 C#5 
 4×


1. F#5 
Keď sa môj kama
H5 
rát lúčil 
D5 
so slobodou, 
A5 
hu!

F#5 
V okamihu 
H5 
dostal nápad 
G5 
za sto bodov, 
F#5 
hu!

Naposledy podľahnúť ženskému telu, hu!
A tak, poď ho spolu s bratom do bordelu, hu!

2. Ľahké ženy dozaista celkom ujdú, hu!
Majú v sebe, vyžarujú zvláštne fluidum, hu!
Majú v sebe stokrát za deň rôznych pánov, hu!
Ukoja vás všetkých podľa vašich plánov, hu!

R: Ja som F#5 
malá Žužu
D5 
žu, toto 
E5 
je môj mikro
C#5 
fón.

Ak mi dáte svoj dolár, ja vám zaspievam svoj song. 2×
+
E:|----------------------------5--------|= 2. kytara
B:|-----5-7-7-----5-7~-----5-7---9-5----|
G:|--/6-------/6--------/6-----------6--|
3. Ukoja vás všetkých pekne do sýtosti, hu!
Nie je o čom, sexuálne skúsenosti, hu!
Vytiahnu vám z gatí ten váš mikrofón, hu!
Za dolár vám zaspievajú ten svoj song, hu!

R: Já som malá Žužužu … 2×

4. Keď sa môj kamarát lúčil so slobodou, hu!
V okamihu dostal nápad za sto bodov, hu!
Naposledy podľahnúť ženskému telu, hu!
A tak, poď ho spolu s bratom do bordelu, hu!

R: Já som malá Žužužu … 4×

Pozn.: (červ)-> 4907, 402 11
15

: Diane

Ami F G 
Ami F G 

Ami 
Hey little girl, 
F 
do you need a ri
G 
de?

Well, I've got room in my wagon why don't you hop inside
We could cruise down Robert Street all night long
But I think I'll just rape you and kill you instead

Diane, Diane, Diane
Diane, Diane, Diane
Diane, Diane, Diane
Diane, Diane, Diane

I heard there's a party down at Lake Cove
It would be so much easier if I drove
We could check it out, we could go and see
Oh, won't you come and take a ride with me

Diane, Diane, Diane
Diane, Diane, Diane
Diane, Diane, Diane
Diane, Diane, Diane

We could lay in the weeds for a little while
I'll put your clothes in a nice, neat little pile
You're the cutest girl I've ever seen in my life
It's all over now, and with my knife

Diane, Diane, Diane
Diane, Diane, Diane
Diane, Diane, Diane, Diane

E:|pm---------------|pm---------------|pm---------------|pm---------------|-
B:|-----------------|-----------------|-----------------|-----------------|-
G:|-----------------|-----------------|-----------------|-----------------|-
D:|-7-7-7-------7---|-3-3-3-3-3-3-3---|-5-5-5-------5---|-5-5-5-------5---|-
A:|-7-7-7-5-5-5-7-5-|-3-3-3-2-2-2-3-0-|-5-5-5-3-3-3-5-3-|-5-5-5-3-3-3-5-0-|-
E:|-5-5-5-5-5-5-5-5-|-1-1-1-1-1-1-1-0-|-3-3-3-3-3-3-3-3-|-3-3-3-3-3-3-3-0-|-

pozn: vyhrávka pro rytmiku s normálníma akordama, viz například slavný cover od Therapy? (na youtube dOzHEUA3GFw), kteří to ale hrají o tón níž, tedy Gmi-D#-F:

Ami Ami? F F? G G? G
16

: Venku je na nule

R: Gm D# A# F/A 
Gm D# A# F/A 

1. Gmi 
Odbila 
D# 
celá, bylo 
F 
čtvrt a bude 
C 
půl

Gmi 
Macatý 
Cmi7 
měsíc
F 
 po nebi plul

Gmi 
A kolem 
D# 
něj tančily 
F 
hvězdy
C 
 

Gmi 
A kolem 
Cmi7 
nich hluboký 
F 
vesmír


R: Gmi 
Venku je na nule, 
D# 
milujem minulé

A# 
Tak nějak zdánlivě 
F/A 
tady žijem

Gmi 
Venku je na nule, 
D# 
milujem minulé

A# 
Svůj klid a stálý 
F/A 
příjem


2. Gmi 
Odbila 
D# 
celá, bylo 
F 
čtvrt a bude 
C 
půl

Gmi 
Macatý 
D# 
měsíc 
F 
po nebi plul

Gmi 
Nad kraji
D# 
nou večerem 
F 
tichým
C 
 

Gmi 
On stále 
D# 
stejný, já 
F 
těžší o své hříchy


R: Venku je na nule, milujem minulé
Tak nějak zdánlivě tady žijem
Venku je na nule, milujem minulé
Svůj klid a stálý příjem

R: Venku je na nule, milujem minulé
Tak nějak zdánlivě tady žijem
Venku je na nule, milujem minulé
Svůj klid a stálý příjem

B. Gmi 
Je šedivé 
D#maj7 
sychravo 
F 
údolí tiše 
C 
zalehl chlad

Gmi 
Po zemi 
D# 
táhne se
F 
 lezavá zima

Gmi 
Je šedivé 
D#maj7 
sychravo, 
F 
údolí tiše 
C 
zalehl chlad

Gmi 
Po zemi táhne se 
D#maj7 
lezavá zima, no 
F 
kdo by to tu neměl, kdo by to tu neměl, ráááád …


R: Venku je na nule, milujem minulé
Tak nějak zdánlivě tady žijem
Venku je na nule, milujem minulé
Svůj klid a stálý příjem

R: Gmi 
Je šedivé sychravo 
D# 
údolí tiše zalehl chlad

A# 
Po zemi táhne se 
F/A 
lezavá zima

Gmi 
Je šedivé sychravo, 
D# 
údolí tiše zalehl chlad

A# 
Po zemi táhne se lezavá zima, no 
F/A 
kdo by to tu neměl, kdo by to tu neměl,

Gmi 
ráááád …


…….Gmi…D#…A#..F/A…..F…..C..Cmi7..D#maj7
E:|--3---x---6---5---x---x---3---6-----
B:|--3---8---6---6---10--5---4---8------
G:|--3---8---7---5---10--5---3---7------
D:|--5---8---8---7---10--5---5---8------
A:|--5---6---8---8---8---3---3---6-----
E:|--3---x---6---5---x---x---x---x-----

pozn: Takhle se to správně hraje. Pokud nejste schopni umačkat ta baréčka, tak můžete hrát CAPO #3 a refrén Em, C, G, D/F# (200230) + sloka Em, C, D, A, Em, Am7, D
17

: Verunčina píseň lásky

D Dsus4 D D 
D Dsus4 D D 
D Dsus4 D D 
D Dsus4 D D 

E:|-(9)/10~~--10--9--7~~------------------7~~-----------10~~-----------10~~--
B:|-----------------------(7)/8~~--8--10-------(6)/7~~--------(6)/7~~--------
G:|--------------------------------------------------------------------------
D:|--------------------------------------------------------------------------
A:|--------------------------------------------------------------------------
E:|--------------------------------------------------------------------------

D 
Vítr si nechal tichej smích

Dsus4 
Barevní ptáci ve větvích

D5 
Co to má společnýho s 
G 
láskou

Emi 
Nad tebou růže skloněná

A 
Na nebi hvězda zmatená

Adim 
Co to má společnýho s 
G 
láskou
Gmi 
 

D 
A konec cesty, bílej sníh

A 
Tak tvoje oči do těch svých

si D 
dám
Dsus4 D D 
 

D Dsus4 D D 

D 
Utíká rychle divnej čas

Dsus4 
A nás už dělí smutná hráz

D 
Co to má společnýho s 
G 
láskou

Emi 
I když mi vítr roznese

A 
Tvý hebký vlasy po lese

Adim 
Mám tě už spojenýho s 
G 
láskou
Gmi 
 

D 
Ráno nás slunce políbí

A 
A svoje ústa na sliby

ti G 
dám

D Dsus4 D D 
D Dsus4 D D 

D 
Noc, která právě začíná

Dsus4 
Je černočerná květina

D5 
Kde se mi touláš svojí 
G 
láskou

Emi 
Až za kraj světa můžeš jít

A 
Budu mít pořád pro co žít

Adim 
Srdce se trápí tvojí 
G 
láskou
Gmi 
 

D 
Jsem perla v moři ztracená

A 
Tu tichou píseň bez jména

ti G 
dám

D Dsus4 D D 
D Dsus4 D 

D Dsus4 2 D5 G Emi 5 A 5 Adim 3 Gmi
A Adim
18

: Hurt

E:|-----0~~-|-(0)-|----0~~-|----2~~-|-
B:|-----1~~-|-(1)-|----1~~-|----3~~-|-
G:|-----2~~-|-(2)-|----0~~-|--2-----|-
D:|---2-----|-----|--2-----|-0------|-
A:|-0-------|-----|-3------|--------|-
E:|---------|-----|--------|--------|-

Ami C D 
Ami C D 

1. Ami 
 
C 
I hurt my
D 
self to
Ami 
day, to 
C 
see if 
D* 
I still 
Ami 
feel

C 
focus 
D 
on the 
Ami 
pain, the 
C 
only 
D* 
thing that's 
Ami 
real

The C 
needle 
D 
tears a 
Ami 
hole, the 
C 
old fa
D* 
miliar 
Ami 
sting

Try to C 
kill it 
D 
all a
Ami 
way, but I 
C 
remember 
D* 
every
G 
thing 


R: Ami7 
What have I be
Fadd9/A 
come? 
Cmaj* 
My sweetest 
G 
friend

Ami7 
Everyone I 
Fadd9/A 
know goes 
Cmaj* 
away in the 
G 
end

Ami 
You could have it 
Fmaj7 
all 
C* 
my empire of 
G 
dirt

Ami7 
I will let you 
Fadd9/A 
down, I 
Cmaj* 
will make you 
Ami 
hurt


2. I wear this crown of thorns, upon my liar's chair
Full of broken thoughts I cannot repair
Beneath the stains of time, the feeling disappears
You are someone else, I am still right here

R: G 
 
Ami7 
What have I be
Fadd9/A 
come? 
Cmaj* 
my sweetest 
G 
friend

Ami7 
Everyone I 
Fadd9/A 
know goes 
Cmaj* 
away in the 
G 
end

Ami 
And you could have it 
Fmaj7 
all 
G* 
my empire of 
G 
dirt

Ami 
I will let you 
Fadd9/A 
down, I 
C* 
will make you 
G 
hurt

Ami 
If I could start 
Fmaj7 
again a 
G* 
million miles 
G 
away

Ami 
I would keep my
Fadd9/A 
self I 
G* 
would find a 
Ami 
way


sloka:  Ami C D
refrén:  G Ami7 Fadd9/A Cmaj
G Ami Fmaj7 C

* (hvězdička) je konec 4/4 taktu
19

: Regen und Meer

4 C# A B 4 G#mi F#mi E 3 C

C# A B G#mi A B 

1. C# 
Du bist ni
A 
cht wie ich
B 
, doch das ändert nicht

Dass du G#mi 
bei mir bist
A 
, und ich 
B 
zuseh' wie du schläfst

C# 
Du bist 
A 
noch längst nicht wach, Ich 
B 
war's die ganze Nacht

Und G#mi 
hab' mich still ge
A 
fragt, was du 
B 
tust, wenn ich jetzt geh'


R1. Und A 
dann verlass' ich deine 
B 
Stadt

Ich seh' zurück und fühl' mich C# 
schwer

Weil g'rade angefangen G#mi 
hat

Was du nicht willst und ich zu A 
sehr

Ich bin der Regen und F#mi 
du bist das Meer


R2. E 
Ich hab' gedacht, ich kann es 
B 
schaffen

Es zu lassen, doch es C# 
geht nicht

Is'n bisschen überA 
trieben

Dich zu lieben, doch es E 
geht nicht

Nichts unversucht geB 
lassen

Dich zu hassen, doch es C 
geht nicht

Es F#mi 
geht nicht


C# A B G#mi A B 

2. Ich bin nicht wie du, Ich mach die Augen zu
Und lauf blindlinks durch die Straßen, hier bin ich, doch wo bist du?
Soll das alles sein? Ich war so lang allein
Es war alles ganz in Ordnung, ganz okay, und dann kamst du

R1. Und jetzt verlass' ich deine Stadt ..

R2. Ich hab' gedacht, ich kann es schaffen ..

E B A B C# B A B 

B. C# 
Ich bin der Regen, du das 
B 
Meer

Und sanfter Regen regnet A 
leise

C# 
Ich bin der Regen, du das 
B 
Meer

Und sanfter Regen zieht im A 
Wasser große Kreise


R2. Ich hab' gedacht, ich kann es schaffen ..

O. C# 
Ich hab ge
A 
dacht ich kann es 
B 
schaffen, es zu 
G#mi 
lassen.
A B 
 


pozn: připomínky ? pište na nettezzaumanaa na gmailu
20

: Lehká

1. H 
Je lehká vůně 
F# 
listí a podzim vzduch je 
A 
čistý, kolem prochá
E 
zíš

H 
v okně sedí 
F# 
dítě, hraje cizí 
A 
příběh, to zpátky nevrá
E 
tíš

H 
Jsi jiná než jsi 
F# 
chtěla, co šlo to jsi 
A 
měla, co teď udě
E 
láš

H 
Už tančí mušky 
F# 
zlaté, jen někdy štěstí 
A 
má tě, možná že to 
E 
víš 
F# 
 


R: Pálí oheň A 
mráz, vedle slunce 
E 
stín a v jednu 
H 
chvííííí
F# 
li

špatná dobrá A 
zlá, všechno najed
E 
nou, černá v 
H 
bííííí
F# 

mám to před A 
sebou …


2. Pomalu mě míjíš, nevím jestli vidíš, že tu stojím sám ..
Kde jsi pořád byla, ty holko černá bílá asi tě v srdci mám ..

R: Pálí oheň mráz ..
R: Pálí oheň mráz ..
R: Pálí oheň mráz ..

H F# A E

pozn: Koller to ve skutečnosti hraje takhle se slidama:

E:|-0-0---0---0---0---
B:|-0-0---0---0---0---
G:|-6/8-/-3-/-6-/-1---
D:|-7/9-/-4-/-7-/-2---
A:|-7/9-/-4-/-7-/-2---
E:|-5/7-/-2-/-5-/-0--- atd ..
21

: Amerika

1. G 
Nandej mi 
D 
do hlavy tvý 
Ami 
brouky a bůh nám seber bezna
G 
děj

G 
v duši zbylo 
D 
světlo z jedný 
Ami 
holky, tak mi teď za to vyna
G 
dej

G 
Zima a 
D 
promarněný 
Ami 
touhy do vrásek stromů padá 
G 
déšt

G 
zbejvaj roky 
D 
asi né moc 
Ami 
dlouhý, do vlasů mi zabrou
C 
kej pá pa 
G 
pá pá


R: G 
Pá 
G/F# 
pá pá 
Em7 
páááá - pá pa pá 
G 
páááá

G 
Pá 
G/F# 
pá pá 
Em7 
páááá - pá pá pá 
G 
páááá


2. Tvoje voči jedou žhavý tóny, dotek slunce zapadá
Horkej vítr rozezní mý zvony, do vlasů ti zabrouká pá pa pá pá

R: Pá pá pá …

3. Na obloze křídla tažnejch ptáků, tak už na svý bráchy zavolej
Na tváře ti padaj slzy z mraků a bůh nám sebral beznaděj
A v duši zbylo světlo z jedný holky, do vrásek stromů padá déšť
Poslední dny, hodiny a roky, do vlasů ti zabrouká pá pa pá pá

akordy:  G D Ami C G/F# Em7

pozn: Pro zjednodušení lze hrát, a zní to skvěle, šak si to zkuste, refrén a ten přechod takhle:

... do vlasů mi zabrouC 
kej pá pa pá 
Emi 


R: Emi 
Pá pá pá 
G 
páááá - pá pa pá 
Emi 
páááá

Emi 
Pá pá pá 
G 
páááá - pá pa pá 
Emi 
páááá
22

: Jsi nejlepší kterou znám

1. G 
Vplést se do tvých řas, pak 
D 
Amore mě spas,

a nebo Emi 
zabij.
C 
 

Když G 
ucítím tvůj třpyt a 
D 
chci tvou vodu pít,

vystřel a Emi 
nabij!
C 
 


R: Ami 
Když stříbro měníš v cín, 
C 
pak láska v heroin

se G 
změní,
F 
 v propadlišti 
C 
krás.

Ami 
A lačnost gilotin po 
C 
nocích bezelstných,

už G 
cení 
F 
zuby na 
C 
nás,

tak zrušte D 
čas.


2. V noci bloudím tmou, hledám tvoji zář,
snad se to změní, jsi nejlepší, kterou znám ..
Jak vůně sladkejch vín, tvá ústa od malin,
do mýho snění, jsi nejlepší kterou znám ..

R: Když stříbro měníš v cín, pak láska v heroin
se změní, v propadlišti krás.
A lačnost gilotin, po nocích bezelstných,
už cení zuby na nás,
tak zrušte čas.

B: Polkni a Emi 
zapij,

A 
nektar z dračích úst,

ty jsi můj C 
nejkrutější půst,

D 
drahokamy nocí letí, chci ti jenom říct ..

jsi nejlepší kterou G 
znám!
D 
 


4× [: Jsi nejlepší kterou Emi 
znám!
C 
 

Jsi nejlepší kterou G 
znám!
D 
 :]
G D Emi C Ami F A
23

: Panic

Jsem skoro A5 
panic - není to 
D5 
lehký,

nešel bych A5 
za nic do náký 
D5 
děvky

Jedině A5 
ty jsi stvoření 
D5 
křehký -

H5 
víla, kterou stvořil jsem si v hlavě abych o 
D5 
ní 

mohl A5 
mluvit před klu
D5 
kama

Co s ní A5 
dělám - je udý
D5 
chaná,

je pořád A5 
se mnou - zamilo
D5 
vaná

H5 
Kluci všechno sežerou mi z ruky zobou 
D5 
 

nafouk jsem jim A5 
hlavy jó to mě 
D5 
baví,

i když jsem A5 
panic a to mě 
D5 
trápí

kdy už to A5 
bude - půjdu se 
D5 
opít

o-óA5 
-ó ..


Vždyť jich znám A5 
tuny, moderních 
D5 
slečen

za čtyři A5 
rumy - byl bych jim v
D5 
děčen

ale to A5 
není to co tady 
D5 
hledám

H5 
mojí víle z vyšších sfér se 
D5 
žádná nevyrovná

nic jim A5 
nedám, i když jsem 
D5 
panic

i když to A5 
bolí, tak ani 
D5 
za nic

to za to A5 
stojí - klapoty 
D5 
sanic

o-ó-A5 
ó ..


A5 
Ptali se mě jestli jsem už něco měl s 
D5 
nějakou holkou

A5 
a já jim řek, že 
D5 
jasně

A5 
ptali se mě kolik jsem jich stačil 
D5 
poznat

A5 
a já jim řek, že 
D5 
spousty

A5 
ptali se mě co jsem s nima 
D5 
dělal

A5 
no a já jim řek, že úplně 
D5 
všechno

A5 
řekli mi: To už jseš teda velkej ch
D5 
lap

A5 
a já jim řek, no 
D5 
jasně


A5 D5 A5 D5 

Jsem skoro A5 
panic - není to 
G5 
lehký,

nešel bych za D5 
nic do nějaký 
A5 
děvky.

Když ty jsi jiná - neokouD5 
kaná

jsi pořád G5 
se mnou - zamilo
E5 
vaná

Jsem skoro A5 
panic - není to 
G5 
lehký,

nešel bych D5 
za nic do nějaký 
A5 
děvky.

Když ty jsi jiná - neokouD5 
kaná

jsi pořád G5 
se mnou - zamilo
E5 
vaná

A5 

5 A5 5 D5 H5 3 G5 7 E5
24

: Namaluj svítání

sloka:  Emi 3 Dd11/A C/G Cmj7/G
ref1:  Hmi Emi 3 Dadd11 C
ref:  C G D/F# D/A

1. Emi 
Rád 
Dd11/A 
poslouchám tvůj 
C/G 
smích, když 
Cmj7/G 
noc je mezi 
Emi 
námi

Tvé Dd11/A 
modré stíny 
C/G 
na očích se 
Cmj7/G 
třpytí pod hvěz
Emi 
dami

Tvé Dd11/A 
rty jsou rudý 
C/G 
půlměsíc, pet
Cmj7/G 
rolej v oce
Emi 
ánu

Už Dd11/A 
nemusíme 
C/G 
nic, vstříc 
Cmj7/G 
poslednímu 
Hmi 
ránu


R1. Hmi 
Když zeptáš se já 
Emi 
odpovím

Jsi Dadd11 
světlo mé a 
C 
já tvůj stín
Hmi 
, tvůj 
Emi 
stín
Dadd11 C 
 

Po Hmi 
nekonečném hledá
Emi 
ní, ne
Dadd11 
vyslyšeném vo
C 
lání

NaHmi 
maluj všechno 
Emi 
o čem sním


R. C 
Áúúaúúú
G 
óóúú, tak prosím 
D/F# 
namaluj svítá
C 

C 
Áúúaúúú
Emi 
óóúú, prosím už 
D/A 
namaluj svítá
C 

C 
Áúúaúúú
G 
óóúú, 
D/F# 
namaluj svítá
C 

C 
Áúúaúúú
Emi 
óóúú, 
D/A 
namaluj svítá
C 
G D/F# 
 


2. Rád poslouchám tvůj smích, když noc je mezi námi
Maluješ osud po nocích svými temperami
Tvé rty jsou rudý půlměsíc, tvé vlasy voní deštěm
Můžeme klidně mnohem víc, když zkusíme to ještě

R1. Když zeptáš se já odpovím
Jsi světlo mé a já tvůj stín, tvůj stín
Po nekonečném hledání, nevyslyšeném volání
Namaluj všechno o čem sním

B1. Emi D/A C G Emi D/A C Emi 

B2. C 
Namaluj temperami tu noc co je tu s námi

D/A 
Tvé oči hvězdy celé, srdce nám bijí v těle

Emi 
Namaluj temperami 
D/A 
tu noc co je tu s námi

C 
Tvé oči hvězdy celé, srdce nám bijí v těle


B2. Namaluj temperami tu noc co je tu s námi
Tvé oči hvězdy celé, srdce nám bijí v těle
Namaluj temperami tu noc co je tu s námi
Tvé oči hvězdy celé, uvězneni jsme v cele

R. Áúúaúúúóóúú, Tak prosím namaluj svítání
Áúúaúúúóóúú, Prosím už namaluj svítání
Áúúaúúúóóúú, Namaluj svítání
Áúúaúúúóóúú, Už namaluj svítání

pozn: je tu skutečně akcent na hlavní strunu akordu, která se uhodí jako první, proto například rozdíl mezi Dadd11/A a Dadd11 a nebo C/G a C ..

pozn2: na koncertu Michal H. tuto písničku na kytaru sám nehraje, neb je se zpěvem rytmicky dost těžká, ale v refrénu (Áúúaúúúóóúú ..) vypomáhá tímhle (eg. sekvence C-G-D/F#, C-Emi-D/A):

E:|-----------|-----------|-
B:|-----------|-----------|-
G:|--5--------|-----------|-
D:|--5--5--4--|--5--5--7--|-
A:|--3--5--5--|--3--2--5--|-
E:|-----3--2--|--3--0--5--|-

pozn3: připomínky ? nettezzaumanaa na gmailu ;)
25

: Padesátka

A 
 
E 
 
Hmi 
 
D 
 

A 
 
E 
 
Hmi 
 
D 
 

1. A 
Na chvíli se proměním, 
E 
dnes stane se to vím,

Hmi 
jak to stihnu, netuším, 
D 
mám velký tajemství.

A 
Ve svý stopě poběžím, 
E 
jsem namazaný stroj,

Hmi 
se svým tělem poletím 
D 
do cíle za obzor.

C#mi 
 
Esus2 
 


R: F#mi 
Bílá stopa, 
E 
rovná, hladká, 
D 
krásná,

F#mi 
dneska bude 
E 
moje duše 
D 
šťastná,

F#mi 
padesátka v 
E 
pohádkovém 
D 
kraji,

F#mi 
nemusím být 
E 
první, 
D 
kamarádi.


2. Oblečení na míru, na hrudi číslo z papíru,
uprostřed svého vesmíru, já stojím tu.
Někdo to vzdá a otočí, v tom tichu zimních hor,
já tenhle závod dokončím, můj táta je můj vzor.

R: Bílá stopa, rovná, hladká, krásná,
dneska bude moje duše šťastná,
padesátka v pohádkovém kraji,
nemusím být první, kamarádi.

sloka:  A E Hmi D
pre-refrén:  4 C#mi 7 Esus2
refrén:  F#mi E D
26

: Blues o spolykaných slovech

A 
1. A 
Jasně, že ti dlužím spoustu 
D 
hezkejch slov

A 
Se mnou děvče nemáš na ně 
G 
kliku
D 
 

A 
Dávno už je umím všechny 
D 
nazpaměť

Cmaj7 
Jenomže mi váznou na ja
D 
zyku


2. Takový ty slova jako čmeláčci
Huňatý a milý s kapkou medu
Stokrát ti je v duchu šeptám do ucha
Ale znáš mě řečnit nedovedu

R1: Emi 
Tak mi promiň děvče však to 
D 
napravím

A 
Můj ty smutku já si dám tu 
Emi 
práci
Emi7 
 

F#mi 
Vyklopím je všechny aspoň 
Cmaj7 
naposled
Cmaj7x 
 


R2: D 
Až si pro mě 
Emi 
příjdou

D 
Až si pro mě 
Emi 
příjdou

D 
Až si pro mě 
Emi 
příjdou

A 
funebráci


3. Takový ty slova jako čmeláčci
Huňatý a milý s kapkou medu
Stokrát ti je v duchu šeptám do ucha
Ale znáš mě řečnit nedovedu

R1: Tak mi promiň děvče však to napravím
Můj ty smutku já si dám tu práci
Vyklopím je všechny aspoň naposled

R2: Až si pro mě příjdou
Až si pro mě příjdou
Až si pro mě příjdou funebráci

R2: Až si pro mě příjdou …

arpeggio:  A Asus4 D Dsus4
G Cmaj7 3 Cmaj7x Emi Emi7

poznamky?: nettezzaumanaa na gmailu
27

: Chtít chytit vítr

CAPO III
capo: III

1. Emi 
Už dlouho 
C 
se mi 
G 
zdá, že 
Dsus2 
ztrácím cenu
Emi C G 
 

Emi 
africkejm 
C 
dětem 
G 
hlad 
Dsus2 
nezaženu
Emi C G 
 


2. zabloudil jsem lhostejností, nevím jak najít cestu zpět
jmenuju se po tátovi, je mi třicet let (2×)

3. o mě se v dětství báli celou neděli
můj táta s mámou možná veděli

4. Emi 
že jako 
C 
malé 
G 
pimpr
Dsus2 
le

Emi 
do svojí 
C 
velké 
G 
škatu
Dsus2 
le

Emi 
aspoň na 
C 
chvíli 
G 
budu chtít 
Dsus2 
chytit vítr
Emi 
 
C 
 
G 
 


mezihra: (4×)
G Dsus2 Emi Dsus2 C 

5. hledal jsem věc za kterou se dá bojovat
myslel jsem že má cenu na muže si hrát

6. pak během jednoho dne jsem poznal, že asi né,
že je to horší než chtít chytit vítr

7. nebudu mít dost sil, zmizím do ticha
v poslední chvíli možná chytím vítr

8. a vítr chytí mě odletíme společně
a těm které tu necháme zbude vítr (2×)

solo: (4×)
G Dsus2 Emi Dsus2 C 

ad.libitum: 
Emi C G Dsus2 

Emi C G Dsus2
28

: Jako by to za to stálo

E H D A 
E H D A 

E 
Dny, měsíce a roky 
H 
tají,

D 
jak špinavý 
A 
sníh na slunci

E 
A z věcí, které 
H 
byly,

D 
nezůstane kolikrát 
A 
ani jen stín

E 
Člověk furt něco h
H 
ledá

D 
a když to najde, 
A 
tak je mu to málo

E 
Utíká, vrací se, 
H 
běží a křičí,

D 
jakoby to za to 
A 
stálo


Skrze okno pizzerie
dívám se jak město žije 
Jak se podél drogerie
plíží Skipi s Brejláčem
Pak jde kolem Vašek
a jeho sbírka igelitových tašek
Skrze okno pizzerie
dívám se jak město žije

Dny, měsíce a roky tají
a z věcí které byly
Člověk furt něco hledá
Utíká, vrací se, běží a křičí
Jakoby to za to stálo
Jakoby to za to stálo
Jakoby to za to stálo
Jakoby to za to stálo

--
capo 1, akordy jsou reálně F C D# A#

E H D A
29

: Nagasaki Hirošima

Capo 1 (tzn reálně od D#): 

1. D 
Tramvají 
A 
dvojkou 
G 
jezdíval jsem 
A 
do Žide
D 
nic
A G A 
 

D 
tak velký 
A 
lásky 
G 
většinou 
A 
nezbyde 
Hmi 
nic 

G 
takový 
D 
lásky 
G 
jsou kruhy 
D 
pod oči
A 
ma 

D 
dvě spálený 
A 
srdce - 
G 
Nagasaki 
A 
Hiroši
D 
ma
A G A 
 


2. Jsou jistý věci co bych tesal do kamene 
tam kde je láska tam je všechno dovolené 
a tam kde není tam mě to nezajímá 
jó dvě spálený srdce - Nagasaki Hirošima 

3. Já nejsem svatej ani ty nejsi svatá 
ale jablka z ráje bejvala jedovatá 
jenže hezky jsi hřála, když mi někdy bylo zima 
jó dvě spálený srdce - Nagasaki Hirošima 

4. Tramvají dvojkou jezdíval jsem do Židenic 
z tak velký lásky většinou nezbyde nic 
z takový lásky jsou kruhy pod očima 
a dvě spálený srdce - Nagasaki Hirošima 
a dvě spálený srdce - Nagasaki Hirošima 
a dvě spálený srdce - Nagasaki Hirošima 
a dvě spálený srdce - Nagasaki Hirošima

D A G Hmi
30

: Udržuj svou ledničku plnou

1. Esus2 
 
Hsus2 
Máš to rád když 
F# 
den 
A 
posype tě popelem

Esus2 
Jó, mám to 
Hsus2 
rád když mi
F# 
 
A 
popeláři končej den

Esus2 
 
Hsus2 
Tím rachotem
F# 
 
A 
jo, tím rachotem

Esus2 
 
Hsus2 
Máš to rád když 
F# 
den 
A 
posype tě popelem


A duše na talíři rozprostřená je jak lágr
Sebe si nesu svůj otrok sebenegr
A duše na talíři rozprostřená je jak lágr
Sebe si nesu svůj otrok sebenegr

R: E 
 
H 
A co seš shrbe
F# 
nej 
A 
co to taháš

E 
 
H 
A co seš shrbenej
F# 
 
A 
 

E 
Každej si hledá 
H 
svý kam sebe vrazit, 
F# 
každej si hledá 
A 
svý

E 
Každej si hledá 
H 
svý kam sebe vrazit, 
F# 
každej si hledá 
A 
svý


2. Nejsem temný, jsem jemný v hezkým svetru, jsem sekáč všech svejch rodin
Udržuju svou ledničku plnou
Se sousedy nekomunikuju kontempluju
Udržuju svou ledničku plnou

R: A co seš…

sloka:  7 Esus2 Hsus2 F# 5 A
refrén:  E 7 H F# 5 A
31

: Fotky z výletu

Mám A 
tajnou skrýš a v ní 
Hmi 
fotky z našich 
F#mi 
výletů,

když tě A 
potkám, pořád 
E 
tají se mi 
D 
dech,

D 
chci něco 
E 
říct a zas to 
A 
popletu,

Hmi 
mráz mi běhá po 
E 
zádech


Mám tajnou skrýš a v ní pár opravdových dopisů,
voní jak ten krém, co míváš na rukou,
znám každou křivku z tvého podpisu,
to ještě není zárukou…

R: E 
Že už se 
F#mi 
není o co 
D 
bát, že mi zase zmizíš,

E 
jak už se 
F#mi 
stalo toli
D 
krát, no a ty se divíš,

E 
tak už si 
F#mi 
přestaň se mnou 
D 
hrát
A 
 

... a řekni jak to F#/Hmi7 
vidíš?


Mám tajnou skrýš a v ní týden s tebou na horách,
mám i ten šátek, kterým setřel jsem ti pot,
stáli jsme v dešti jen tak v bačkorách
a já měl tep jako bych běžel o závod ..

Mám tajnou skrýš a v ní jen jednu otázku,
možná tušíš, možná víš, co bych teď chtěl,
tak se tě ptám : "Věříš na lásku?"
Na mě se nedívej, já z ní dávno oněměl…

R: E 
Že už se 
F#mi 
není o co 
D 
bát, že mi zase 
Hmi 
zmizíš,

E 
jak už se 
F#mi 
stalo toli
D 
krát, no a ty se 
Hmi 
divíš,

E 
tak už si 
F#mi 
přestaň se mnou 
D 
hrát
A 
 

... a řekni jak to F#/Hmi7 
vidíš?


Mám tajnou skrýš a v ní víc než tisíc důvodů,
proč už nehledám a proč zastavil jsem čas,
až půjdeš v bílém se mnou v průvodu,
celý svět ztichne, aby nás dva nepropás' ..

R: Že už se není o co bát ..

R: Že už se není o co bát ..

A Hmi F#mi D E F#/Hmi7
32

: Spomaľ

capo: 3

A Emi A Emi A Emi D A 

1. A 
Za niečím 
Emi 
krásnym

A 
Tak rýchlo 
Emi 
ako sa 
A 

Do tvojich Emi 
básní

D 
Márně rým 
A 
hľadám


Za niečím zvláštnym
Do záhrad kde nie je kríž
Kam sa to blázniš
Nestíham s tebou ísť

R: A 
Spomaľ máš pri
D/F# 
vysokú rýchlosť

G 
Vnímam ju len 
D 
šiestym zmyslom

A 
Mám
D/F# 
 zá
G 
vrat
D 
 

A 
Náhlim sa po 
D/F# 
tvojom boku

G 
mám už dosť zby
D 
točných pokút

A 
Mám
D/F# 
 sa 
G 
báť?
D 
 


2. Za niečím stálym
Tak rýchlo ako to dá
Sa všetko má-li
Aj napriek výhodám ..

Za niečím bájnym
Do záhrad kde nie je kríž
Kam sa to blázniš
Nestíham s tebou ísť

R: Spomaľ máš privysokú rýchlosť ..

A Emi A Emi A Emi D A 

R: Spomaľ máš privysokú rýchlosť ..

A Emi D D/F# G
33

: Pugili Fragili

Emi Hmi 

1. Emi 
Avanti dai proviamo a studiare i nostri passi

Hmi 
Insieme noi possiamo smon
C 
tare tutti quanti

Ma Emi 
tu lo sai che siamo i migliori salta fossi

E a Hmi 
noi chi c'ammaz
C 
za?


1p. RicompoEmi 
niamo i giorni as
Hmi 
senti

E ritroC 
viamoci sorpren
D 
denti


R. G 
Siamo strani vin
Dmi 
centi

F 
Cicatrici che di
C 
segnano la vi
G 
ta

G 
Con le unghie e coi 
Dmi 
denti

F 
Riconoscersi 
C 
pugili fragi
D 
li

Ami 
Pugili fragili, 
C 
fuori dagli angoli
G 
 


2. Tu già lo sai che siamo gli uragani e le tempeste
Pericoli e terremoti i re delle incertezze
Ma tu lo sai che siamo in un rito di passaggio
E a noi chi c'ammazza?

2p. Ricomponiamo tutti i frammenti
E mescoliamo gli elementi

R. G 
Siamo strani vin
Dmi 
centi

F 
Cicatrici che di
C 
segnano la vi
G 
ta

G 
Con le unghie e coi 
Dmi 
denti

F 
Riconoscersi 
C 
pugili fragi
D 
li

Ami 
Pugili fragili, 
C 
fuori dagli angoli
G 
 

D 
Pugili fragili, 
Ami 
fuori dagli angoli
C 
 

uoooo-G 
ooooo


D Ami C G 
[Instrumental]

D Ami C 

G 
Pugili

D 
Pugili fragili, 
Ami 
fuori dagli angoli
C 
 

G 
Pugili

D 
Pugili fragili, 
Ami 
fuori dagli angoli
C 
 

uoooo-G 
ooooo


D Ami C G 

pozn: připomínky ? nettezzaumanaa na gmailu
34

: Drive

arpeggio: Dmi
E:|-----1-----1----1------|-----1-----1---------------|-
B:|-------3-----3---3-----|-------3-----3---3---------|-
G:|---2--------------0----|---2-------------2^-0---0--|-
D:|-0------0-----0----3~~-|-0------0-----0-------3----|-
A:|-----------------------|---------------------------|-
E:|-----------------------|---------------------------|-

Intro: 3× 1/2 AP + 1× 2/2 AP

Dmi 

1. Dmi 
Smack, crack, bushwhacked

G 
Tie another one to your racks, 
Dmi 
baby

Dmi 
Hey kids, rock and roll

G 
Nobody tells you where to go, 
Dmi 
baby


R: F 
What if I ride, what if you walk?

Ami 
What if you rock around the clock?

G 
Tick-tock, tick-tock

Emi 
What if you did, what if you walk?

What if you tried to get G 
off, 
Dmi 
baby?


2. Hey, kids, where are you?
Nobody tells you what to do, baby
Hey kids, shake a leg
Maybe you're crazy in the head, baby

R: Maybe you did, maybe you walked
Maybe you rocked around the clock
Tick-tock, tick-tock
Maybe I ride, maybe you walk
Maybe I drive to get off, baby

R2: C 
Hey kids, shake a leg

Maybe you're crazy in the head, Dmi 
baby

C 
Ollie, ollie, ollie ollie ollie

Ollie ollie in come free, Dmi 
baby

C 
Hey, kids, where are you?

G 
Nobody tells you what to do, 
Dmi 
baby


Dmi 

3. Smack, crack, shack-a-lack
Tie another one to your backs, baby
Hey kids, rock and roll
Nobody tells you where to go, baby

R: Maybe you did, maybe you walk
Maybe you rock around the clock
Tick-tock, tick-tock
Maybe I ride, maybe you walk
Maybe I drive to get off, baby

R3: Emi 
Hey kids, where are you?

Nobody tells you what to G 
do, 
Dmi 
baby

Emi 
Hey kids, rock and roll

Nobody tells you where to G 
go, 
Dmi 
baby

Dmi 
baby, baby ..


Dmi G F Ami Emi

comments: ? nettezzaumanaa na gmailu
35

: Černý brejle

@70bpm

1. Nosím černý D 
brejle, protože mi 
F#mi 
nejde

chránit svoji Emi 
duši, která něco 
C 
tuší

i z okolností D 
zdáse, že nepřichází 
F#mi 
zase

to co jse si Emi 
přál tak budu čekat 
C 
dál


Ať mi někdo Ami 
odpoví proč přišlo tohle 
F 
období

tak náhlá změna D 
trasy má skrytej význam 
E 
asi 
E7 
 


Ref: F 
Zdálo, zdálo, zdálo, asi se mi 
Ami 
zdálo

C 
málo, málo, málo, že chybí už tak 
Emi 
málo 
E 
 

F 
zdálo, zdálo, zdálo, asi se mi 
Ami 
zdálo

C 
málo, málo, málo, že chybí už tak 
Emi 
málo 
E 
 


D 
 
F#mi 
 
Emi 
 
C 
 

2. Docházej mi náboje, však nevzdávám to bez boje
pořád věřím tomu, že se vrátí domů
tak snadno mě nezlomí ani pohý vědomí
že mi zatím nejde čekat až to přejde

Ať mi někdo odpoví proč přišlo tohle období
tak náhlá změna trasy má skrytej význam asi

Ref: 
F 
36

: Unavený a zničený

C Ami 
C Ami 
C Ami 
1. C 
Unavený a zniče
Ami 

skončím ráno pod studenou perinou
Spánok je vyslobodením
a pokoj iba naivnou vidinou

F (C) G (D) A 
F (C) G (D) A 

C Ami 
C Ami 
2. C 
Po včerajšej párty
Ami 
 

Zem mi zrazu pod nohami uniká
Pamätám sa na časy
Keď som zvládol aj väčšie riziká

R: [: V špinavom F 
meste strate
C 

UnaveF 
ný a zniče
C 

Ulicou D 
šlapem

A 
na nič neča
G 
kám :]


C Ami 
C Ami 

3. C 
Svet je divoký a šialený
Ami 
 

ja sa v ňom už vôbec nevyznám
Tak tu stojím na rohu
Hladný smädný, zmetený a sám

R: V špinavom meste stratený…
C Ami 
C 
C Ami 
C 

riff:  C Ami Asus4
37

: Průša

1. D 
Z hospody na návsi je slyšet polku,
D# 
 jo
D 
 ho
A 
 ho
A# 
 ho
A 
 ho,

D 
v úplňku na hrázi v křoví se krčí,
D# 
 jo
D 
 ho
A 
 ho
A# 
 ho
A 
 ho,

D 
posedlý potřebou chytit si holku,
D# 
 jo
D 
 ho
A 
 ho
A# 
 ho
A 
 ho,

D 
funí do rákosí a temně vrčí,
D# 
 jo
D 
 ho
A 
 ho
A# 
 ho
A 
 ho.


R: A 
Stejně si samy za to 
A# 
holky 
A 
můžou,

A 
že nechtěj chodit po vsi s 
A# 
Petrem 
A 
Průšou,

A 
tak to zkusil aspoň s tou 
A# 
blbou 
A 
Růžou,

A 
pod rouškou násilí 
A# 
tmou, 
H 
tmou, 
C 
tmou, 
C# 
tmou.


Riff: 

2. Skončila zábava, Růža se vrací, Průša je úchyl,
sama jde po hrázi a nemá strach, Průša je úchyl,
tlustá a opilá chvílemi zvrací, Průša je úchyl,
častěji upadne, polyká prach, Průša je úchyl.

R: Stejně si samy za to holky můžou,
že nechtěj chodit po vsi s Petrem Průšou,
tak to zkusil aspoň s tou blbou Růžou,
pod rouškou násilí tmou, tmou, tmou, tmou.

Riff: 

3. Teď došla k Průšovi mátoha tlustá, Průša je úchyl,
deviant útočí, mizí s ní v pýru, Průša je úchyl,
drtí jí ňadra a líže ústa, Průša je úchyl,
hledá kde nechal tesař díru, Průša je úchyl.

R: Stejně si samy za to holky můžou,
že nechtěj chodit po vsi s Petrem Průšou,
tak to zkusil aspoň s tou blbou Růžou,
pod rouškou násilí tmou, tmou, tmou, tmou.

Riff: 

4. Průša už usíná ukojen doma, Průša je úchyl
naplněn pocitem jaký maj rváči, Průša je úchyl
Růženu opouští lihové koma, Průša je úchyl
Nic neví, k domovu po hrázi kráčí, Průša je úchyl.

R: Stejně si samy za to holky můžou,
že nechtěj chodit po vsi s Petrem Průšou,
tak to zkusil aspoň s tou blbou Růžou,
pod rouškou násilí tmou, tmou, tmou, tmou.

Riff: 
E:|-----------------------------
B:|---------5-8-7-5-------------
G:|---7-6-7---------7-6-----7-7-
D:|-0-------------------7-7-----
A:|-----------------------------
E:|-----------------------------
38

: Domovnice

1. E5 
Domovnice 
F5 
se mnou se zas 
D5 
hádá,

E5 
divný slova 
F5 
do svý pusy 
D5 
vkládá,

E5 
večný spory 
F5 
se mnou ji moc 
D5 
teší,

E5 
na to že jsem 
F5 
dobrák asi 
D5 
hreší ..


R: C5 
Zlá - 
A#5 
baba 
D#5 
baba

C5 
Zlá - 
A#5 
baba 
D#5 
baba

C5 
Zlá - 
A#5 
baba 
D#5 
baba

C5 
Zlá - 
A#5 
baba 
D#5 
baba 
G5 
zláá
F5 
ááá
D5 
á


2. Zase se se mnou domovnice pře,
obličejem pripomíná vepře,
kvůli mě si baba kazí zdraví,
viditelně ji to ale baví ..

R: Zlá - baba…

3. Praví stojíc na dřevěný noze,
že si žiju na vysoký noze,
jelikož mě už nemůže vystát,
mám si začít svoje krámy chystat ..

R: Zlá - baba…

4. Přesto si ji znepřátelit nemohu,
můj byt totiž má výhodnou polohu,

R: moje sklepní místnustka
s tekoucí vodou ze stropu,
misto malby plíseň má
a hned za zdí hospodu!

sloka: E F D

E:|--------------
B:|--------------
G:|--9---10--7---
D:|--9---10--7---
A:|--7---8---5---
E:|--------------

refrén: C A# D# .. G F D

E:|-------------|--------------
B:|-------------|--------------
G:|----------8--|--12--10--7---
D:|--10--8---8--|--12--10--7---
A:|--10--8---6--|--10--8---5---
E:|--8---6------|--------------
39

: Dopravní značky

Ami 
Dopravní značky 
G 
na ulicích pověšené

Ami 
ukazujou nám 
G 
co můžem a co už zas ne

Ami 
modrobílý šipky 
G 
vyznačujou nám cestu, 

Ami 
my po ní jedeme 
G 
radostně a bez protestu


E:|----------------|----------------|----------------|----------------|
B:|--5---5--3~~~---|----------------|----------------|----------------|
G:|----------------|--5----5--4~~~--|----------------|--5----5--4~~~--|
D:|----------------|----------------|--7----7--5~~~--|----------------|
A:|----------------|----------------|----------------|----------------|
E:|----------------|----------------|----------------|----------------|

E:|----------------|----------------|----------------|----------------|
B:|--5---5--3~~~---|----------------|----------------|----------------|
G:|----------------|--5----5--4~~~--|----------------|--4----4--2~~~--|
D:|----------------|----------------|--7----7--5~~~--|----------------|
A:|----------------|----------------|----------------|----------------|
E:|----------------|----------------|----------------|----------------|

Dopravní značky nepřipouští dvojí výklad,
začínáme si pomalu na ně zvykat,
barevný tabule jsou naším denním chlebem 
a život bez nich představit si už ani nedovedem.

Zákazy vjezdu zákazy parkování
zákazy stání zákazy zastavení
jednosměrná ulice copak vy ji nevidíte, 
jak do ní vjedete už se nikdy nevrátíte.

dokola:  5 Ami 3 G
rytmus: 8/8 DUxxD---
40

: Peprmintový Bourbon

Rec.: 
Peprmintový Bourbon, John Debil ho vyráběl tak, že do zelené přidával půl na půl absinth a jemně nařezanou petrželku.

1. D 
Zapalova
Ami 
č fuč 
G 
tak udělal jsem 
D 
šťáru

Zapalovač fuč na stole není
Zapalovač fuč a holka asi taky
Zapalovač fuč lehce nabyl lehce pozbyl

R: C 
Nechci už 
G 
takhle dál 
D 
žít

C 
Nechci už 
G 
takhle dál 
A 
o zapalovače přicházet


2. Na terasách maj peprmintovej bourbon
Na terasách kluci jsou veselí
Pouštěj divnej rock'n'roll do těch divnejch beden
Na terasách tam tomu nerozumí

R: Nechci už takhle dál žít
Nechci už takhle dál nechat si střední ucho hnít

3. Na terasách se scházej samí divný týpkové
Na terasách pouští asi Napalm Death
Scházejí se tam peprmintovej bourbon
Lejou do sebe na terasách na terasách

R: Nechci už takhle dál žít
Nechci už takhle žíť peprmintovej bourbon pít
Nechci už takhle dál žít
Nechci už takhle dál vab-šua rock'n'roll

Pixies:  D Ami G C A
Hroch: D Ami G C A
E:|-----------------
B:|-----------------
G:|-7--5--12--5-----
D:|-7--7--12--5--7--
A:|-5--7--10--3--7--
E:|--------------5--

41

: Strategický ústup

intro: D5 C5 D5 A#5 C5 D5 F5

1. D5 
Dopil jsem 
C5 
láhev a 
D5 
hodil ji 
A#5 
za sebe

C5 
Zezadu mě bodly 
D5 
střepy 
F5 
skla

Kdo měl křídla ten vodlítnul do nebe
Obloha smíchy vyprskla

R: D5 
Vyklízíme pozice už 
G5 
máme ruku na klice

F5 
Naposled se ohlídnem 
E5 
než propadnem 
D#5 
panice

Vyklízíme pozice už máme ruku na klice
Naposled se ohlídnem než propadnem panice

2. Pozbíral jsem střepy a slepil je zpátky
Do očí mě bodlo prázdno v nich
Jistota mizela zadními vrátky
Z oblohy stále pršel smích

R: Vyklízíme pozice ..

R: Vyklízíme pozice ..

R: Vyklízíme pozice ..

sloka: D5 C5 D5 A#5 C5 D5 F5

E:|-------------------------
B:|-------------------------
G:|-7--5--7-----5--7--10----
D:|-7--5--7--8--5--7--10----
A:|-5--3--5--8--3--5--8-----
E:|----------6--------------

refren: D5 G5 F5 E5 D#5

E:|-------------------
B:|-------------------
G:|--7-----10-9--8----
D:|--7--5--10-9--8----
A:|--5--5--8--7--6----
E:|-----3-------------

42

: Detaily

E:|-2--------2------2-----|-3--------3------3-----|-----------------------|-----------------------|
B:|----3-------3------3---|----3-------3------3---|-------7------7------7-|-----------------------|
G:|-------4------4------4-|-------4------4------4-|----7-------7------7---|-------6------6------6-|
D:|-----------------------|-----------------------|-7--------7------7-----|----7-------7------7---|
A:|-----------------------|-----------------------|-----------------------|-7--------7------7-----|
E:|-----------------------|-----------------------|-----------------------|-----------------------|

Hmi G D A 
Hmi G D A 

Hmi 
Město je horký, srpnový,
G 
 

že v srdci taje to takoD 

nejvíc a nejhůř studený místo.A 
 


Spící sopky se probudí,
byl dlouho pryč, kolem a v okolí,
teď toužil a chtěl cítit blízkost.

Čau mami! Tak jsem tady zas.
Jsem agent Cooper – dám si koláč.
Hážu kříž na zem – hlavu mám nízko.

Mezi ním mezi ní byly detaily.
A kusy rodiny, který se rozpadly.
Byl to šílenej horor – řev a taky vřískot.

Mezi ním mezi ní byly detaily
a kusy koláče, který dopadly,
na ubrus a na zem, ale na stole bylo čisto.

Noci jsou vlahý a takový,
že srdce buší hladový,
cítíš to v sobě a víš to.

Hrdinové nekecaj a jdou.
Tam, kam nechce vůbec nikdo –
na nejvíc a nejhůř studený místo.

Čau lidi! Tak jsem tady zas.
Jsem agent Cooper a jdu po vás.
Prostě to najdu – už jsem blízko.

Mezi ním mezi ní byly detaily.
A kusy líčidel, který dopadly,
na ubrus a na zem, ale po pláči bylo čisto.

Mezi ním mezi ní byly detaily
A kusy líčidel, který dopadly
Na ubrus a na zem, ale po pláči bylo čisto.

Hmi 
Bolí
G 
 to 
D 
dlouho,
A 
 

Hmi 
Bolí
G 
 to 
D 
dál.
A 
 

Hmi 
Bolí
G 
 to 
D 
dlouho.
A 
 

Hmi 
Vzal
G 
 za tu 
D 
zataženou
A 
 
Hmi 
roletu
G 
 a 
D 
vstal.


A mezi ním mezi ní byly detaily
A kusy líčidel, který dopadly
Na ubrus a na zem, ale po pláči bylo čisto.

A mezi ním mezi ní byly detaily
A kusy líčidel, který dopadly
Na ubrus a na zem, ale po pláči bylo čisto.

Hrdinové nekecaj a jdou do tmy.
Hrdinové nekecaj a jdou tam, kam nechce nikdo.

Hrdinové nekecaj a jdou do tmy.
Hrdinové nekecaj a jdou tam, kam nechce nikdo.

Hrdinové nekecaj ..

Hmi 3 G 5 D 5 A

pozn: (kytarového Babici) pokud vám nevyhovují ta baréčka, protože s klasickejma openchords to fakt zní blbě,
tak můžete dát capo #2 a hrát to Ami, F, C, G
43

: Iluze

A#5 D#5 G5 C5 D#5 
A#5 D#5 G5 C5 D#5 

1. A#5 
Výlet do oblasti deja 
D#5 
vu, se nepo
G5 
ved, je tady 
C5 
pěkná 
D#5 
zima,

A#5 
že se úplně klepou ru
D#5 
ce, škoda
G5 
, že ti to 
C5 
nemůžu 
D#5 
poslat

A#5 
výlet do oblasti deja 
D#5 
vu, dlou
G5 
hý ticho střída
C5 
jí cizí 
D#5 
hlasy

A#5 
minuta to je několik 
D#5 
dní, v kraji
G5 
ně, na 
C5 
poušti zakřičím a vytáhnu prameny

D#5 
zakřičím a vytáhnu prameny


R: Pověsíme na svý rty iluzi a pak se za ní budeme dívat
pověsíme na svý rty iluzi a pak se za ní budeme dívat
pověsíme na svý rty iluzi, třeba se otočí silueta beduína
pověsíme na svý rty iluzi a pak se za ní budeme dívat
jak ji vítr roztrhá

2. U východu z oblasti deja vu stojí moje mexičanka
řeknu jenom hele pustíš mě, odpoví mi: no nikdy jsem tě nedržela !
U východu z oblasti deja vu, škoda, že ti to nemůžu poslat
taky tě to roztrhá,
naděje umírá poslední - ale umírá

R: Pověsíme na svý rty iluzi…

6 A#5 6 D# 3 G5 3 C5
44

: Andělé

1. Hsus 
Co tě to hn
C#m7 
ed po ránu na
E 
padá, 
Hsus 
nohy, ruce - 
C#m7 
komu je chceš 
E 
dát ?

Hsus 
Je to v krvi
C#m7 
, co tvou hlavu 
E 
přepad
Hsus 
á, chtěla
C#m7 
s' padnout do hrobu a 
E 
spát ..


R: D 
Poranění 
A 
andělé jdou d
G 
o polí, s
D 
těhovaví
A 
 lidi ulít
G 
aj,

D 
panenku b
A 
odni - jí to 
G 
nebolí, s
D 
vět je mami
A 
 prapodivnej kra
G 
j!


2. Po ránu princezna je ospalá, na nebi nemusí se bát,
v ulicích doba zlá ji spoutala, polykač nálezů a ztrát ..

R: Poranění andělé jdou do polí, stěhovaví lidi ulítaj,
panenku bodni - jí to nebolí, svět je mami prapodivnej kraj!

[solo:]

3. Co tě to zas po ránu napadá, za zrdcadlem nezkoušej si lhát,
miluju tě, chci tě - to ti přísahám, na kolenou lásce pomož vstát ..

R: Poranění andělé jdou do polí, stěhovaví lidi ulítaj,
panenku bodni - jí to nebolí, svět je mami dokonalej kraj!
svět je mami dokonalej kraj,
svět je mami dokonalej kraj,
svět je mami dokonalej kraj ..

sloka:  Hsus 4 C#m7 E
refrén:  5 D 5 A 3 G
45

: Kočky

@75bpm, CAPO 2

Amaj7 Asus4 E 

1. Když kočky Amaj7 
řvou, tma sirkou 
Esus4 
připálí
E 
 

sladkobolný C#mi7 
karamel, voňavá 
F# 
neštěstí 

celou mě Hmi7 
rozkrájí, broušený 
Dmi7 
půlměsíc ..

Když ptáci Amaj7 
řvou, není to 
Esus4 
bolestí
E 
 

když holky C#mi 
lžou, mrazí je 
F# 
v zápěstí 

cikánko Hmi7 
maličká, přičaruj 
Dmi7 
synečka 

když holky Amaj7 
lžou ..
Esus4 
 
E 
 


2. Už svatí Amaj7 
jdou v kulhavém 
Esus4 
příběhu
E 
 

sandály C#mi7 
dřou na paty 
F# 
vševědů 

a voda k Hmi7 
zábradlí tak moudře 
Dmi7 
promlouvá: 

hou-houpy-hAmaj7 
ou  
Esus4 
 
E 
 


R: Dmi7 
Pili jsme na zimu, líbali se na jaro,

Amaj7 
léto jsme milovali, na podzim spali, hej 

Dmi7 
Pili jsme na zimu, 
A#maj7 
líbali se na jaro 

Cmaj7 
léto jsme 
Hmi7 
milovali  
Dmi7 
 a áá
Dmi6 
..


Mez: Amaj7 
Čividudyp čup čip čup čipčudydu

E7sus4 
Čividudyp čup čip ú á á 2×

SOlo: akordy sloka

3. Když ptáci lžou, voňavá neštěstí 
připálený karamel, zamrazí v zápěstí 
v kulhavém příběhu, není to bolestí 
Dmi6 
o hó …


R: Amaj7 
Pili jsme na zimu, líbali se na jaro,

E7sus4 
léto jsme milovali, na podzim spali, hej 

Amaj7 
Pili jsme na zimu, líbali se na jaro,

E7sus4 
léto jsme milovali, na podzim spali, hej 

Amaj7 
Pili jsme na zimu, líbali se na jaro 

Cmaj7 
léto jsme 
Hmaj7 
milovali  
Dmi7 
 a áá
Dmi6 
..


Mez: Amaj7 
Čividudyp čup čip čup čipčudydu

E7sus4 
Čividudyp čup čip ú á á 3×


Amaj7 Esus4 E 4 C#mi7 F# Hmi7 5 Dmi7 A#maj7 3 Cmaj7 Hmaj
46