STOJIMEZAUKRAJINOU.CZ ❤ Pomáhat Ukrajině můžeš rukama i hlavou, materiálně i finančně, z terénu i z gauče.

Deep Purple arrow / Smoke on the water

: Smoke on the water

INTRO: 
E||-----------------|---------------|----------------|------------------||
H||o----------------|---------------|----------------|-----------------o||
G||--0---3---5----0-|---3---6-5-----|-0---3---5----3-|---0----(0)-------||
D||--0---3---5----0-|---3---6-5-----|-0---3---5----3-|---0----(0)-------||
A||o----------------|---------------|----------------|-----------------o||
E||-----------------|---------------|----------------|------------------||
'
RIFF: 
E|----------------|---------------|----------------|--------------------|
H|----------------|---------------|----------------|--------------------|
G|-0---3---5----0-|---3---6-5-----|-0---3---5----3-|---0----(0)---------|
d|-0---3---5----0-|---3---6-5-----|-0---3---5----3-|---0----(0)--(5)\---|
A|----------------|---------------|----------------|-------------(5)\---|
E|----------------|---------------|----------------|--------------------|
'
We aAm 
ll came out to montreux

On the lC 
ake gene
D 
va sho
Am 
reline

Am 
To make records with a mobile

We dC 
idn't h
D 
ave much t
Ami 
me

Am 
Frank zappa and the mothers

Were C 
at the best pl
D 
ace around

Am 
But some stupid with a flare gun

C 
Burned the place 
D 
to the 
Am 
ground

D 
Smoke on the w
F 
ater, 
Am 
fire 
C 
in the 
Am 
sky

D 
Smoke on the w
F 
ater…


RIFF 2X

They burned down the gambling house
It died with an awful sound
Funky claude was running in and out
Pulling kids out the ground
When it all was over
We had to find another place
But swiss time was running out
It seemed that we would lose the race
Smoke on the water, fire in the sky

We ended up at the grand hotel
It was empty cold and bare
But with the rolling truck stones thing just outside
Making our music there
With a few red lights and a few old beds
We make a place to sweat
No matter what we get out of this
I know we'll never forget
Smoke on the water, fire in the sky

RIFF 2X
video

Historie úprav

22. 07.

Červ (aktuální)

21. 07.

Červ (rozdíl)

Export

Sdílení