STOJIMEZAUKRAJINOU.CZ ❤ Pomáhat Ukrajině můžeš rukama i hlavou, materiálně i finančně, z terénu i z gauče.

Jamie N Commons arrow / Lead me Home

: Lead me Home

CAPO: IV
SLOKA: 
E|------------------------------|-------------------------|
B|-------3---3----------3--3----|----3----3---------3---3-|
G|----2h3-2h3-0-2---2h3-2h3-2---|-2h3--2h3-0-2---2h3-2h3-2|
D|---0----0---------0-----------|0-----0---------0--------|
A|---0----0---------0-----------|0-----0---------0--------|
E|------------------------------|-------------------------|

1. Oh Lord live inside me, lead me on my way  
Oh Lord live inside me, lead me on my way  

REFREN: 
E|------------------------------------|
B|----3---3------3---3-------3---3----|
G|--2---2---2---2-2h3-0-2--2---2---2--|
D|------------0------------0----------|
A|-0----0-----0------------0----------|
E|-1----0-----------------------------|

R: Lead me home  
Lead me home  

2. Oh Lord in the darkness, lead me on my way  
Oh Lord in the darkness, lead me on my way  

R: Lead me home … 

3. Oh Lord heaven's waiting, open up your door  
Oh Lord heaven's waiting, open up your door  

R: Lead me home …  
video

Historie úprav

24. 11.

Červ (rozdíl)

Export

Sdílení

Ve zpěvnících

Písnička není v žádném zpěvníku.