STOJIMEZAUKRAJINOU.CZ ❤ Pomáhat Ukrajině můžeš rukama i hlavou, materiálně i finančně, z terénu i z gauče.

Game of Thrones arrow / Game of Thrones Theme (Červ style)

: Game of Thrones Theme (Červ style)

CAPO III
|  Am                         A 
E:|-0-----0-------|         |-0------0-----|
B:|---1h3----1h3--|         |----2/3---2/3-|
G:|--2-----2------|         |--2------2----|
D:|---------------|---> 2x  |--------------|---> 2x
A:|-0-------------|         |--------------|
E:|---------------|         |--------------|

E:|--12~----5-----8--10--12-----5---8h10--7--------7--------7--------7----|
B:|o--------5-------------------5-------------8h10-----8h10-----8h10-----8|
G:|--9~-----5-------------------5-----------9--------9--------9--------9--|
D:|-----------------------------------------------------------------------|
A:|o-0---0-----0-------------0--------------------------------------------|
E:|---------------------------------------0-------------------------------|

E:|-10~---------7-8-7---5------5-------5-------5---------|
B:|--------8----0-----8----6h8-----6h8-----6h8-----6----o|
G:|--------0----0---------7------7-------7-------7-------|
D:|---------------------0--------------------------------|
A:|-10~-10---10-----------------------------------------o|
E:|------------------------------------------------------|

|                             tohleto 4x   tohleto 4x   G  C
E:|--------------------------|---------0-|---------0-|--3-(0)-|-------------|
B:|o-----------0-1-1-1-1-0-0-|-1-1-1h3-1-|---------0-|--3--1--|-0-1-0------o|
G:|--2-2--2-2--2-2-2-2-2-2-2-|-2-2-2-----|-0-0-0h2---|--0--0--|-------0-2~--|
D:|--2-2--2-2--2-------------|-----------|-2-2-2-----|--0--2--|-------------|
A:|o-0-----------------------|-----------|-----------|--2-----|------------o|
E:|--------------------------|-----------|-----------|--3-----|-3-3-3-------|

Cm F Dm Am F F E/Am  

E:|-------------------------------------------------------|
B:|-------------------------------------------------------|
G:|-----2--------2--------2--------2--------2---------2---|
D:|-2h3---2--2h3---2--2h3---2-2h3----2--2h3---2--2h3--2---|
A:|-------------------------------------------------------|
E:|-------------------------------------------------------|

Am Em  
E:|-----------------------------------|
B:|-----0--------0--------0--------0--|
G:|-0h2---0--0h2---0--0h2---0--0h2-0--|
D:|-----------------------------------|
A:|-----------------------------------|
E:|-----------------------------------|

Cm F Dm Am F F E/Am  

Historie úprav

15. 11.

Červ (aktuální)

15. 11.

Červ (rozdíl)

15. 11.

Červ (rozdíl)

Export

Sdílení

Ve zpěvnících