STOJIMEZAUKRAJINOU.CZ ❤ Pomáhat Ukrajině můžeš rukama i hlavou, materiálně i finančně, z terénu i z gauče.

Peter, Paul and Mary arrow / A Soalin'

: A Soalin'

e|-----0-----2-----3--2--0-----0-----2-----3--5--7-------|  (CAPO II)
B|--0-----0-----0-----------0-----0-----0----------------|
G|-------------------------------------------------------|
D|-------------------------------------------------------|
A|-------------------------------------------------------|1
E|-------------------------------------------------------|

e|-----0-----2-----3--2--0-----0-----2-----0-----0-------|
B|--0-----0-----0-----------0-----0-----3----------------|
G|-------------------------------------------------------|
D|-------------------------------------------------------|
A|-------------------------------------------------------|2
E|-----------------------------------------3--2--0-------|

e|-----0-----2-----3--2--0-----0-----2-----3--5--7-------|
B|--0-----0-----0-----------0-----0-----0----------------|
G|-------------------------------------------------------|
D|-----2-----0-------------------------------------------|
A|-----------------3--2--3-----2-----0-------------------|3
E|-----------------------------------------3--2--0-------|

e|-----0-----2-----3--2--0-----0-----2-----0-----0-------|
B|--0-----0-----0-----------0-----0-----3----------------|
G|-------------------------------------------------------|
D|-----2-----0-------------------------------------------|
A|-----------------3--2--3-----2-----0-------------------|4
E|-----------------------------------------3--2--0-------|

e|-7----5-----3----2----0---7----5-----3----7----5--------|
B|----0----0-----0-------------0----0---------------------|
G|--------------------------------------------------------|
D|--------------------------------------------------------|
A|-5----4-----2----0----0---5----4-----2----5----4--------|5
E|--------------------------------------------------------|

e|-7----5-----3----2----0---3----2-----0-------12*--------|
B|----0----0-----0-------------0----3------0--------------|
G|--------------------------------------------------------|
D|----------------------------------0---------------------|
A|-5----4-----2----0----0---2----0-----2------------------|6
E|--------------------------------------------------------|

e|-12------10------8-----7---8-----7-----5------3--------|
B|-----0-------0------0---------0-----0-----0------0-----|
G|-------------------------------------------------------|
D|-10-------9------7-----5---7-----5-----4------2--------|
A|-------------------------------------------------------|7
E|-------------------------------------------------------|

e|-7----5-----3----2----0---3----2-----0-------12*--------|
B|----0----0-----0-------------0----3------0--------------|
G|--------------------------------------------------------|
D|----------------------------------0---------------------|
A|-5----4-----2----0----0---2----0-----2------------------|8
E|--------------------------------------------------------|

e|-----0-----2-----3--2--0-----0-----2-----3--5--7-------|
B|--0-----0-----0-----------0-----0-----0----------------|
G|-------------------------------------------------------|
D|-----2-----0-------------------------------------------|
A|-----------------3--2--3-----2-----0-------------------|9
E|-----------------------------------------3--2--0-------|

e|-7---8------10---12---12---10---8---7---4---6---8---9---12|
B|--------10--------------------------------------------12--|
G|----------------------------------------------------------|
D|-----7-------9--------------------------------------------|
A|----------------------10----9---7---5---2---5---7---0-----|10
E|----------------------------------------------------------|
1. Hey, ho, nobody home,meat, nor drink, nor money have I none
can't you, we be merry, hey ho, nobody home.
Hey, ho, nobody home,meat, nor drink, nor money have I none
can't you, we be merry, hey ho, nobody home.

R: A soulin, a soulin, a soulin cake Please, good missus, a soulin cake
An apple, a pear, a plum or a cherry Any good thing to make us all merry
One for Peter, two for Paul Three for Him who made us all

2. God Bless the master of this house, the mistress also
And all the little children who around your table grow
the cattle in your stable, the dog at your front door.
And all that dwells within your gates we wish you ten times more

R: 

3. Go down into your cellor, and see what you can find,
if the barrels are all empty we hope you will be kind.
with the apple in your sill, and the pumpkin in your chair
We won't come no more till this time next year

R: 

4. The streets are very dirty and my shoes are very thin
I've got a little pocket I can put a penny in
If you haven't got a penny, a ha' penny will do
If you haven't got a ha' penny, then God bless you.

R: 

5. To the lord and praises, to all the angels and saints,
and to loving brotherhood, each other now embrace,
if only be kind and pray for us. time has come, enjoy.
×

Peter, Paul and Mary

Tisknout vše od interpreta

video

Historie úprav

21. 02.

Červ (aktuální)

16. 11.

Červ (rozdíl)

16. 11.

Červ (rozdíl)

16. 11.

Červ (rozdíl)

16. 11.

Červ (rozdíl)

16. 11.

Červ (rozdíl)

16. 11.

Červ (rozdíl)

16. 11.

Červ (rozdíl)

15. 11.

Červ (rozdíl)

15. 11.

Červ (rozdíl)

15. 11.

Červ (rozdíl)

Export

Sdílení

Ve zpěvnících