STOJIMEZAUKRAJINOU.CZ ❤ Pomáhat Ukrajině můžeš rukama i hlavou, materiálně i finančně, z terénu i z gauče.

The Hateful Eight arrow / Jim Jones at Botany Bay

: Jim Jones at Botany Bay

Pozn.: písnička ve videu od 39:03
Intro4x: 
e|----------------|
B|---0------------|
G|---------0------|  
D|----------------|
A|-----0h2--------|
E|-0--------------|

Oh listen for a moment lads and hear me tell my tale
e|------------------------------------------|
B|-------3--------3---1---0---0-------------|
G|---4---4----4---4---2---2---------0-------|
D|---5--------5---------2-------------------|
A|-----5--------5---0-----------0h2---------|
E|-3-------3----------------0---------------|

How o'er the sea from England's shore I was compelled to sail
The jury says he guilty sir and the hanging judge says he
e|---------------------------------------------------------------------------------|
B|---5---5------3---1---0---0---------5---5-------3---1---0---0---------0----------|
G|---5---5---4--4---2---2---------0---5---5---4---4---2---2---------0---------0----|
D|-----5-----5--------2-----------------5-----5---------2--------------------------|
A|-3-----------5---0----------0h2----3-----------5---0----------0h2--------0h2-----|
E|---------3--------------0-----------------3---------------0---------0------------|

For life Jim Jones I'm sending you across the stormy sea
e|------------------------------------------------------|
B|---1---1~~~~~~~~~~~~~~~~--1---0----0---------0--------|
G|---2---2~~~~~~~~~~~~~~~~--2---2----------0------------|
D|-----2----------------------2-------------------------|
A|-0----------------------0------------0h2-------0h2----|
E|---------------------------------0---------0----------|

1. Oh listen for a moment lads and hear me tell my tale
How o'er the sea from England's shore I was compelled to sail
The jury says he guilty sir and the hanging judge says he
For life Jim Jones I'm sending you across the stormy sea

2. And take my tip before you ship to join the iron gang
Dont be too gay at Botany Bay or else you'll surely hang
Or else you'll surely hang he says and after that Jim Jones
It's high upon the gallows tree the crows will pick your bones

3. You'll have no chance for mischief there remember what I say
They'll flog the poaching out of you out there at Botany Bay
The waves were high upon the sea the wind blew up in gales
I'd rather have drowned in misery than come to New South Wales

4. The winds blew high upon the sea and the pirates came along
But the soldiers on our convict ship were full five hundred strong
They opened fire and somehow drove that pirate ship away
I'd rather joined that pirate ship than come to New South Wales

5. For night and day the irons clang and like poor galley slaves 
We toil and moil and when we die must fill dishonoured graves
But bye and bye I'll break my chains into the bush I'll go
And join the bold bushrangers there Jack Donahoo and Co

6. And some dark night when everything is silent in this town
I'll kill the tyrants one by one and shoot the floggers down
I'll give the law a little shock remember what I say
They'll yet regret they sent Jim Jones in chains to Botany Bay
video

Historie úprav

02. 02.

Červ (aktuální)

02. 02.

Červ (rozdíl)

27. 01.

Červ (rozdíl)

27. 01.

Červ (rozdíl)

27. 01.

Červ (rozdíl)

27. 01.

Červ (rozdíl)

Export

Sdílení

Ve zpěvnících

Písnička není v žádném zpěvníku.