STOJIMEZAUKRAJINOU.CZ ❤ Pomáhat Ukrajině můžeš rukama i hlavou, materiálně i finančně, z terénu i z gauče.

Root arrow / Píseň pro Satana

: Píseň pro Satana

Toto se hraje stále dokola během celé písničky (1&2 guitars):

|----------------------------------------------------|
|----------------------------------------------------|
|----------------------------------------------------|
|----------------------------------------------------|
|----------------------------------------------------|
|---0-12-13----0-10-12----0-8-10----0-7-8-10-8-7-5---|

Ke konci hraje druhá kytara toto: 

|----------------------------------------------------|
|----------------------------------------------------|
|----------------------------------------------------|
|---2-2-2-2-2-2-2-2-2-2-2-2-2-2----------------------|
|---2-2-2-2-2-2-2-2-2-2-2-2-2-2----------------------|
|---0-0-0-0-0-0-0-0-0-0-0-0-0-0-----0-7-8-10-8-7-5---|

Text: Ach Satane, Ty vládče všehomíra,
jak skála pevná je má láska k tobě.
Nezměnitelná v tebe je má víra,
obrácený kříž chci mít na hrobě.
Tvůj obraz mám vypálený v srdci -
v srdci, které je navždy tvoje!
Když navštívíš mě někdy v noci,
pentagram zazáří jak světlušek roje.
Tvým jménem proklel jsem kostely a chrámy,
mou duši sám Lucifer si vzal.
Spálil jsem Bibli a podobný krámy
a tobě své tělo věnoval.
Vím, že jsem tvůj, jsem majetkem tvých synů
a těším se na tvůj ohnivý Ráj.
Jen vírou v tebe já odčiním svou vinu,
pak půjdu dál, až na propasti kraj.
Při Černé mši jsem vždy nesmírně hrdý,
že do učení k sobě jsi mě vzal.
Co nezmohou dnes žádné vědy,
to všechno ty už dávno znal.
Když skládám ruce do středu Pentagramu,
a duše má se začne zachvívat,
pak vždycky poznáš, že nikdy tě nezklamu,
že navěky tě budu milovat!
video

Historie úprav

12. 08.

kubalysak (aktuální)

Export

Sdílení

Ve zpěvnících

Písnička není v žádném zpěvníku.