STOJIMEZAUKRAJINOU.CZ ❤ Pomáhat Ukrajině můžeš rukama i hlavou, materiálně i finančně, z terénu i z gauče.

Alkaline Trio arrow / I Wanna Be Warhol

: I Wanna Be Warhol

Am F C C 
Am F G G 

1. Am 
I wanna be a little piece of histo
F 
ry, let's 
C D 
go

Am 
I wanna be a painting for all to see
F 
, let's 
C D 
go

Am 
Take a trip, take a big hand full of 
F 
these and 
C D 
swallow

Am 
Just a headache, a 
F 
fuzzy memo
G 
ry tomorrow


R: C 
I wanna be a Warhol 
Am 
hanging on your wall

G 
You down there looking up at 
F 
me

C 
I wanna be a Warhol 
Am 
displayed on your wall

G 
Hung up there staring back at 
F 
you

Staring back at you

Am F C C 
Am F G G 

2. Give me a taste of your misery, let's go
Won't you please come play chemistry and sorrow
I can't believe anything that you're telling me, let's go
The walls are closing in and melting nice and slow

R: I wanna be a Warhol hanging on your wall
You down there looking up at me
I wanna be a Warhol displayed on your wall
Hung up and staring back at you
Staring back at you

Am Am F C 
Am Am F D 
Am Am F C 
Am Am F G 
G G 

R: C Am G F 

R: I wanna be a Warhol hanging on your wall
Staring down at you
I wanna be a Warhol displayed on your wall
Still hung up on you

Still hung up on Am 
you
F G 
 

Still hung up on Am 
you


Am F C D G

guitar2: 

Intro: Am, F, C, C | Am, F, G, G

E:|--------------------------|--------------------------|--------------------------|--------------------------|
B:|--------------------------|--------------------------|--------------------------|--------------------------|
G:|--9--9--9--9--9--9--9--9--|--12-12-12-12-12-12-12-12-|--12-12-12-12-12-12-12-12-|--10-10-10-10-10-10-10-10-|
D:|--10-10-10-10-10-10-10-10-|--10-10-10-10-10-10-10-10-|--10-10-10-10-10-10-10-10-|--10-10-10-10-10-10-10-10-|
A:|--0--0--0--0--0--0--0--0--|--8--8--8--8--8--8--8--8--|--x--x--x--x--x--x--x--x--|--x--x--x--x--x--x--x--x--|
E:|--------------------------|--------------------------|--8--8--8--8--8--8--8--8--|--8--8--8--8--10-10-10-10-|

E:|--------------------------|--------------------------|--------------------------|--------------------------|
B:|--------------------------|--------------------------|--------------------------|--------------------------|
G:|--9--9--9--9--9--9--9--9--|--12-12-12-12-12-12-12-12-|--12-12-12-12-12-12-12-12-|--12-12-12-12-12-12-12-12-|
D:|--10-10-10-10-10-10-10-10-|--10-10-10-10-10-10-10-10-|--12-12-12-12-12-12-12-12-|--12-12-12-12-12-12-12-12-|
A:|--0--0--0--0--0--0--0--0--|--8--8--8--8--8--8--8--8--|--10-10-10-10-10-10-10-10-|--10-10-10-10-10-10-10-10-|
E:|--------------------------|--------------------------|--------------------------|--------------------------|

Verse: 3× Am, Am, F, C D | Am, F, G, G

E:|--------------------------|--------------------------|--------------------------|--------------------------|
B:|--------------------------|--------------------------|--------------------------|--------------------------|
G:|--9--9--9--9--9--9--9--9--|--10-10-10-10-9--9--9--9--|--12-12-12-12-12-12-12-12-|--12-12-12-12-12-12-12-12-|
D:|--10-10-10-10-10-10-10-10-|--10-10-10-10-10-10-10-10-|--10-10-10-10-10-10-10-10-|--10-10-10-10-10-10-10-10-|
A:|--0--0--0--0--0--0--0--0--|--0--0--0--0--0--0--0--0--|--8--8--8--8--8--8--8--8--|--x--x--x--x--x--x--x--x--|
E:|--------------------------|--------------------------|--------------------------|--8--8--8--8--10-10-10-10-|

E:|--------------------------|--------------------------|--------------------------|--------------------------|
B:|--------------------------|--------------------------|--------------------------|--------------------------|
G:|--9--9--9--9--9--9--9--9--|--10-10-10-10-10-10-10-10-|--12-12-12-12-12-12-12-12-|--12-12-12-12-12-12-12-12-|
D:|--10-10-10-10-10-10-10-10-|--10-10-10-10-10-10-10-10-|--12-12-12-12-12-12-12-12-|--12-12-12-12-12-12-12-12-|
A:|--0--0--0--0--0--0--0--0--|--8--8--8--8--8--8--8--8--|--10-10-10-10-10-10-10-10-|--10-10-10-10-10-10-10-10-|
E:|--------------------------|--------------------------|--------------------------|--------------------------|

Chorus: 2× C, Am, G, F

E:|--------------------------|--------------------------|--------------------------|--------------------------|
B:|--------------------------|--------------------------|--------------------------|--------------------------|
G:|--5--5--5--5--5--5--5--5--|--4--4--4--4--5--5--5--5--|--5--5--5--5--5--5--5--5--|--4--4--4--4--5--5--5--5--|
D:|--5--5--5--5--5--5--5--5--|--5--5--5--5--5--5--5--5--|--5--5--5--5--5--5--5--5--|--5--5--5--5--5--5--5--5--|
A:|--3--3--3--3--3--3--3--3--|--3--3--3--3--3--3--3--3--|--0--0--0--0--0--0--0--0--|--0--0--0--0--0--0--0--0--|
E:|--------------------------|--------------------------|--------------------------|--------------------------|

E:|--------------------------|--------------------------|--------------------------|--------------------------|
B:|--------------------------|--------------------------|--------------------------|--------------------------|
G:|--5--5--5--5--5--5--5--5--|--4--4--4--4--5--5--5--5--|--2--2--2--2--2--2--2--2--|--2--2--2--2--2--2--2--2--|
D:|--5--5--5--5--5--5--5--5--|--5--5--5--5--5--5--5--5--|--3--3--3--3--3--3--3--3--|--3--3--3--3--3--3--3--3--|
A:|--x--x--x--x--x--x--x--x--|--x--x--x--x--x--x--x--x--|--3--3--3--3--3--3--3--3--|--3--3--3--3--3--3--3--3--|
E:|--3--3--3--3--3--3--3--3--|--3--3--3--3--3--3--3--3--|--1--1--1--1--1--1--1--1--|--1--1--1--1--1--1--1--1--|

Bridge: Am, Am, F, C | Am, Am, F, D | Am, Am, F, C | Am, Am, F, G | G, G, G

E:|--Am-F--C--D--G---
B:|------------------
G:|--9--12-12-12-12--
D:|--10-10-10-10-12--
A:|--0--8--x--x--10--
E:|--------8--10-----

Riff: 

E:|--------------------------|--------------------------|--------------------------|--------------------------|
B:|--------------------------|--------------------------|--------------------------|--------------------------|
G:|--------5--------4--------|--------5--------4--------|--------5--------4--------|--------10--------9-------|
D:|-----5--------5-----------|-----5--------5-----------|-----5--------5-----------|-----10--------10---------|
A:|--3--------3--------------|--0--------0--------------|--------------------------|--8---------8-------------|
E:|--------------------------|--------------------------|--3--------3--------------|--------------------------|
video

Videonávod

video

Historie úprav

13. 10.

ntz (aktuální)

13. 10.

ntz (rozdíl)

Export

Sdílení

Ve zpěvnících

ntz