Faith no more arrow / Last cup of sorrow

: Last cup of sorrow

1. This is getting old and so are you
Everything you know and never knew
Will run through your fingers just like sand
Enjoy it while you can

Pre: Like a snake between two stones
It itches in your bones
Take a deep breath and swallow
Your sorrow
Tomorrow

Riff: So raise it up and let's propose a toast
To the thing that hurts you most

R: It's your last cup of sorrow
What can you say?
Finish it today
It's your last cup of sorrow
So think of me
And get on your way

2. It won't begin until you make it end
Until you know the how the where and the when
With a new face you might surprise yourself

Pre: Like a snake between two stones
It itches in your bones
Take a deeper breath and swallow
Your sorrow
Tomorrow

Riff: Raise it up and let's propose a toast
To the thing that hurts you most

R: It's your last cup of sorrow
What can you say?
Finish it today
It's your last cup of sorrow
So think of me
And get on your way

Out: You might surprise yourself
You might surprise yourself
You might surprise yourself
You might surprise yourself
You might surprise yourself
You might surprise yourself
You might surprise yourself
You might surprise yourself
You might surprise yourself
You might surprise yourself
You might surprise yourself
You might surprise yourself

Riff: 

E:|--G-----------Em----
B:|--------------------
G:|--------------------
D:|--5---5-5*-5*-2~~~~~
A:|--5---5-5*-5*-2~~~~~
E:|--3---3-3*-3*-0-----

Verse: 

E:|-G-------Em~~~~------------------
B:|---------------------------------
G:|---------------------------------
D:|---------------------------------
A:|---------------------------------
E:|-0*--0*--0*--0*--0*--0*--0*--0*--

Pre: 

E:|--A-------G-------|-A-------A#-------|
B:|------------------|------------------|
G:|------0-----0---0-|-----0-----0---0--|
D:|----7---7-5---5---|---7---7-8---8----|
A:|--0---------------|-0----------------|
E:|------------------|------------------|

R: 

E:|--0--0--0--0--
B:|--0--0--0--0--
G:|--8--6--4--6--
D:|--9--7--5--7--
A:|--9--7--5--7--
E:|--7--5--3--5--

Out: 

E:|--A-----------G-----------|-A-----------A#-----------|
B:|--------------------------|--------------------------|
G:|------0-----0-----0-----0-|-----0-----0-----0-----0--|
D:|----2-----2-----2-----2---|---7-----7-----7-----7----|
A:|--0-----0-----------------|-0-----0------------------|
E:|--------------3-----3-----|-------------6-----6------|
video

Historie úprav

26. 10.

ntz (aktuální)

26. 10.

ntz (rozdíl)

Export

Sdílení

Ve zpěvnících

ntz