STOJIMEZAUKRAJINOU.CZ ❤ Pomáhat Ukrajině můžeš rukama i hlavou, materiálně i finančně, z terénu i z gauče.

Jetty Bones arrow / Taking up Space

: Taking up Space

[ Intro/Verse ]

e|---------------------------------|-----------------------------------------|
B|-------0---------------0---------|-------0---------------0-----------------|
G|-------4~--------------4~--------|-------4~--------------4~~---------------|
D|---2-------2---2---2-------2---0-|---2-------2---2---4------4/6p4-2~~------|
A|-0---0-------0---0---2-------0---|-4---4-------4---2---2-------------------|
E|-*---------------*---------------|-*---------------*-----------------------|

[ Chorus ]

e|-0-0-0-0-0-0-0-0-|-0-0-0-0-0-0-0-0-|-0-0-0-0-0-0-0-0-|-0-0-0-0-0-0-0-0-----|
B|-0-0-0-0-0-0-0-0-|-0-0-0-0-0-0-0-0-|-0-0-0-0-0-0-0-0-|-0-0-0-0-0-0-0-0-----|
G|-2-2-2-2-2-2-2-2-|-2-2-2-2-1-1-1-1-|-1-1-1-1-1-1-1-1-|-1-1-1-1-1-1-1-1-----|
D|-2-2-2-2-2-2-2-2-|-2-2-2-2-2-2-2-2-|-2-2-2-2-2-2-2-2-|-4-4-4-4-4-4-4-4-----|
A|-0-0-0-0-0-0-0-0-|-0-0-0-0-0-0-0-0-|-4-4-4-4-4-4-4-4-|-2-2-2-2-2-2-2-2-----|
E|-x-x-x-x-x-x-x-x-|-x-x-x-x-x-x-x-x-|-x-x-x-x-x-x-x-x-|-x-x-x-x-x-x-x-x-----|

[ Bridge ]

e|-0-0-0-0-0-0-0-0-|-0-0-0-0-0-0-0-0-|-0-0-0-0-0-0-0-0-|-0-0-0-0-0-0-0-0-----|
B|-0-0-0-0-0-0-0-0-|-0-0-0-0-0-0-0-0-|-0-0-0-0-0-0-0-0-|-0-0-0-0-0-0-0-0-----|
G|-2-2-2-2-2-2-2-2-|-2-2-2-2-1-1-1-1-|-6-6-6-6-6-6-6-6-|-4-4-4-4-4-4-4-4-----|
D|-2-2-2-2-2-2-2-2-|-2-2-2-2-2-2-2-2-|-6-6-6-6-6-6-6-6-|-4-4-4-4-4-4-4-4-----|
A|-0-0-0-0-0-0-0-0-|-0-0-0-0-0-0-0-0-|-4-4-4-4-4-4-4-4-|-2-2-2-2-2-2-2-2-----|
E|-x-x-x-x-x-x-x-x-|-x-x-x-x-x-x-x-x-|-x-x-x-x-x-x-x-x-|-x-x-x-x-x-x-x-x-----|

[ Solo ]

e|----------------------------------------------------------------------------------------------|
B|--0-0-0-0-0--0--0-0-0--0----------------------------------------------------------------------|
G|-1313131313-11-131311-13-11-9-11--6--8--8br-4~~\--6--8br--6--4--6/11-9-11br-11br-11br-9-10~~~-|
D|----------------------------------------------------------------------------------------------|
A|----------------------------------------------------------------------------------------------|
E|----------------------------------------------------------------------------------------------|

1. I guess I'm moving like a freight train
Slow but picking up speed
A steady roll by the pedestrians and they're all looking at me
And I can feel the metal grinding with inconsistencies
I never know if I am in the way or if they're all marveling

R: Or if I'm just taking up space
Taking up space
Taking up spaaace
Maybe I should get out of the way
Get out of the way
Get out of the way

2. I guess I'm feeling like a burden
Or a brick wall of little bees
It's hard enough to imagine pushing through without imagining the stings
I've never been too good with patience
Always feel weary waiting
(I always worry when you tell me not to worry about it)
But I guess they don't call it the hardest part for nothing

R: What if I'm just taking up space?
Taking up space
Taking up space
Maybe I should get out of the way
Get out of the way
Get out of the way

What if I'm just taking up space?
Taking up space
Taking up space
Maybe I should get out of the way
Get out of the way
Get out of the way

B: And all along I thought I knew
But those old doubts keep pushing through
To placate them and then pursue
A place to thrive and then undo

The pulling threads of woes we weave are
Tangled up intricately (Taking up Space)
With the passive placement of feelings
That leaves us with no room to breathe
To breathe

R: What if I'm just taking up space?
Taking up space
Taking up space
Maybe I should get out of the way
Get out of the way
Get out of the way

What if I'm just taking up space?
Taking up space
Taking up space
Maybe I should get out of the way
Get out of the way
Get out of the way

Verse:  Asus C#sus Hsus2
Chorus:  Asus2 C#sus7 Hsus
Bridge:  Asus2 4 C#sus4 Hsus2
video

Historie úprav

28. 04.

ntz (aktuální)

Export

Sdílení

Ve zpěvnících

ntz