ntz arrow / Against Me arrow / Borne On The FM Waves Of The Heart

: Borne On The FM Waves Of The Heart

intro: E5
sloka: E5 C#5 A

E:|-----------
B:|-------2---
G:|-5--6--2---
D:|-7--6--2---
A:|-7--4--0---
E:|-----------

bridge: E5 C#5 A

E:|-----------------|-----------------|-----------------|-----------------|
B:|-----------------|-----------------|-----------------|-----------------|
G:|-9-9-9-9-9-9-9-9-|-9-9-9-----------|-6-6-6-6-6-6-6---|-6-6-6-6-6-6-6---|
D:|-9-9-9-7-7-7-7-7-|-6-6-6-4-4-4-4-4-|-6-6-6-6-6-6-6-4-|-6-6-6-6-6-6-6-4-|
A:|-7-7-7-7-7-7-7-7-|-7-7-7-7-7-7-7-7-|-4-4-4-4-4-4-4-4-|-4-4-4-4-4-4-4-4-|
E:|-----------------|-----------------|-----------------|-----------------|

E:|-----------------|-----------------|-----------------|-----------------|
B:|-----------------|-----------------|-----------------|-----------------|
G:|-6-6-6-6-6-6-6-6-|-2-2-2-----------|-6-----6-----6---|-6-----6-----6---|
D:|-6-6-6-4-4-4-4-4-|-2-2-2-1-1-1-----|-7-7-7-7-7-7-7-7-|-7-7-7-7-7-7-7-7-|
A:|-4-4-4-4-4-4-4-4-|-4-4-4-4-4-4-6~~~|-7-7-7-7-7-7-7-7-|-7-7-7-7-7-7-7-7-|
E:|-----------------|-----------------|-5-5-5-5-5-5-5-5-|-5-5-5-5-5-5-5-5-|

refren: Bsus4 C#sus2 Asus2

E:|---0-----0-----0-|---0-----0-----0-|---0-----0-----0-|---0-----0-----0-|
B:|-0---0-0---0-0---|-0---0-0---0-0---|-0---0-0---0-0---|-0---0-0---0-0---|
G:|-4-----4-----4---|-4-----4-----4---|-6-----6-----6---|-2-----2-----2---|
D:|-4-----4-----4---|-4-----4-----4---|-6-----6-----6---|-2-----2-----2---|
A:|-2-----------2---|-2-----------2---|-4-----------4---|-0-----------0---|
E:|-----------------|-----------------|-----------------|-----------------|

post-ref: B A

E:|-----------------|-----------------|-----------------|-----------------|
B:|-----------------|-----------------|-----------------|-----------------|
G:|-----------------|-----------------|-6-----6-----6---|-6-----6-----6---|
D:|-9-9-9-9-11111111|-7-7-7-7-7-7-7-7-|-7-7-7-7-7-7-7-7-|-7-7-7-7-7-7-7-7-|
A:|-9-9-9-9-11111111|-x-x-x-x-x-x-x-x-|-7-7-7-7-7-7-7-7-|-7-7-7-7-7-7-7-7-|
E:|-7-7-7-7-7-7-7-7-|-7-7-7-7-7-7-7-7-|-5-5-5-5-5-5-5-5-|-5-5-5-5-5-5-5-5-|

intro
sloka 2×
bridge
sloka 2×
refren 3×
post-ref
sloka 2×
refren 3×
pos-ref
bridge 2×
refren 3×
post-ref 1/2 2×
post-ref

No, it's not what we meant to say.
We don’t really love each other.
What happens when the summer’s over?
How long before distance becomes a chore?
I'm approaching with great, great trepidation.
I hope you’ll understand.

Before you speak think about what you're trying to say.
Who else is there to blame for miscommunication?
You're getting caught up in the excitement.
You making promises you can’t keep.
You need to leave all your options open.

Too much momentum.
This room feels like it's going to explode.
Too many angles.
Too many factors to cover.
Waiting for signal.
You're searching for network.
You have to fight to stay in control of the situation.

Anxiety, Anxiety you give me no mercy.
Grind my teeth smooth and flat in my sleep.
We took some pills to calm us down.
Then we needed help to come back up.
Just trying to stay in control of the situation.

Too much momentum.
This room feels like it's going to explode.
Too many angles.
Too many factors to cover.
Waiting for signal.
You're searching for network.
You have to fight to stay in control of the situation.
They fall apart so easily.

Too much momentum.
This room feels like it's going to explode.
Too many angles.
Too many factors to cover.
Waiting for signal.
You're searching for network.
You have to fight to stay in control.
You have to fight to stay in control.
No, you don’t have to fight to stay in control of the situation.
×

ntz

Autor zpěvníku: ntz

Tisknout zpěvník

Duplikovat zpěvník

Obsah

Titulní stránka
 
Against Me
Borne On The FM Waves Of The Heart přidat
Alkaline Trio
I Wanna Be Warhol přidat
Aneta Langerová
Stačilo říct přidat
Balada pro banditu
Zabili, zabili přidat
Baťa a Kalábůf něžný beat
Bláznivá Zuzana přidat
Buty
Nad stádem koní přidat
Cranberries
I can't be with you přidat
Just my imagination přidat
Ode to my family přidat
Promises přidat
Faith no more
Last cup of sorrow přidat
Greenhorns
Rovnou přidat
Zátoka přidat
Hop trop
Amazonka přidat
Horkýže Slíže
Malá Žužu přidat
Hüsker Dü
Diane přidat
Chinaski
Venku je na nule přidat
Ivan Hlas
Verunčina píseň lásky přidat
Johnny Cash
Hurt přidat
Juli
Regen und Meer přidat
Kollerband
Lehká přidat
Lucie
Amerika přidat
Jsi nejlepší kterou znám přidat
Panic přidat
Michal Hrůza
Namaluj svítání přidat
Padesátka přidat
Michal Prokop
Blues o spolykaných slovech přidat
Mňága a Žďorp
Chtít chytit vítr přidat
Jako by to za to stálo přidat
Nagasaki Hirošima přidat
Monika Načeva
Udržuj svou ledničku plnou přidat
Nedivoč
Fotky z výletu přidat
Peha
Spomaľ přidat
Piero Pelù
Pugili Fragili přidat
R.E.M.
Drive přidat
Ready Kirken
Černý brejle přidat
Slodobná Európa
Unavený a zničený přidat
Tři sestry
Průša přidat
Visací zámek
Domovnice přidat
Dopravní značky přidat
Peprmintový Bourbon přidat
Strategický ústup přidat
Vypsaná fiXa
Detaily přidat
Iluze přidat
Wanastowi Vjecy
Andělé přidat
Zuzana Navarová
Kočky přidat
video

Videonávod

video

Historie úprav

28. 05.

ntz (aktuální)

28. 05.

ntz (rozdíl)

28. 05.

ntz (rozdíl)

Export

Sdílení

Ve zpěvnících

ntz