ntz arrow / Visací zámek arrow / Strategický ústup

: Strategický ústup

intro: D5 C5 D5 A#5 C5 D5 F5

1. D5 
Dopil jsem 
C5 
láhev a 
D5 
hodil ji 
A#5 
za sebe

C5 
Zezadu mě bodly 
D5 
střepy 
F5 
skla

Kdo měl křídla ten vodlítnul do nebe
Obloha smíchy vyprskla

R: D5 
Vyklízíme pozice už 
G5 
máme ruku na klice

F5 
Naposled se ohlídnem 
E5 
než propadnem 
D#5 
panice

Vyklízíme pozice už máme ruku na klice
Naposled se ohlídnem než propadnem panice

2. Pozbíral jsem střepy a slepil je zpátky
Do očí mě bodlo prázdno v nich
Jistota mizela zadními vrátky
Z oblohy stále pršel smích

R: Vyklízíme pozice ..

R: Vyklízíme pozice ..

R: Vyklízíme pozice ..

sloka: D5 C5 D5 A#5 C5 D5 F5

E:|-------------------------
B:|-------------------------
G:|-7--5--7-----5--7--10----
D:|-7--5--7--8--5--7--10----
A:|-5--3--5--8--3--5--8-----
E:|----------6--------------

refren: D5 G5 F5 E5 D#5

E:|-------------------
B:|-------------------
G:|--7-----10-9--8----
D:|--7--5--10-9--8----
A:|--5--5--8--7--6----
E:|-----3-------------

video

Historie úprav

22. 06.

ntz (aktuální)

Export

Sdílení

Ve zpěvnících

ntz