ntz arrow / Cranberries arrow / Ode to my family

: Ode to my family

capo: 2
intro: C Ami Emi Cadd4

C 
Understand
Ami 
 the things I 
Emi 
say

Don't Cadd4 
turn away from me

C 
'Cause I've spent 
Ami 
half my life out 
Emi 
there

You Cadd4 
wouldn't disagree


Do you see me? Do you see?
Do you like me?
Do you like me standing there?
Do you notice? Do you know?
Do you see me?
Do you see me? Does anyone care?

Unhappiness
Where's when I was young
And we didn't give a damn
'Cause we were raised
To see life as fun
And take it if we can

My mother, my mother
She hold me, she hold me
When I was out there
My father, my father
He liked me, oh, he liked me
Does anyone care?

Understand what I've become
It wasn't my design
And people everywhere think something
Better than I am

But I miss you, I miss
'Cause I liked it
'Cause I liked it when I was out there
Do you know this? Do you know
You did not find me?
You did not find. Does anyone care?

Unhappiness
Where's when I was young
And we didn't give a damn
'Cause we were raised
To see life as fun
And take it if we can

My mother, my mother
She hold me, she hold me
When I was out there
My father, my father
He liked me, oh, he liked me
Does anyone care?

Does anyone care?
Does anyone care?
Does anyone care?
Does anyone care?
Does anyone care?
Does anyone care?
Does anyone care?

akordy:  C Ami Emi Cadd4
intro: 

E:|--0----0-----|--0----0-----|-------0-----|--0----0-----|
B:|--1-------1--|--1-------1--|--0-------0--|--1-------1--|
G:|--0----------|--2----------|--0----------|--0----------|
D:|--2----------|--2----------|--2----------|--3----------|
A:|--3----------|--0----------|--2----------|--3----------|
E:|-------------|-------------|--0----------|-------------|

riff: 

E:|-----------------------------|-----------------------------|
B:|--1--------1--------1--------|--1--------1--------1--------|
G:|--0--0--------0--------0-----|--2--2--------2--------2-----|
D:|--2-----2--------2--------0--|--2-----2--------2--------0--|
A:|--3--------------------------|--0--------------------------|
E:|-----------------------------|-----------------------------|

E:|-----------------------------|-----------------------------|
B:|-----------0--------0--------|--1-------1---1--1---1-------|
G:|--0--0--------0--------0-----|--0--0----0p2-0--0p2-0--0----|
D:|--2-----2--------2--------0--|--3----3------------------0--|
A:|--2--------------------------|--3--------------------------|
E:|--0--------------------------|-----------------------------|
video

Historie úprav

24. 06.

ntz (aktuální)

24. 06.

ntz (rozdíl)

Export

Sdílení

Ve zpěvnících

ntz