base arrow / Karel Plíhal arrow / Ráda se miluje (taby)

: Ráda se miluje (taby)

IntroCAPOII: 
|---------------------|---------------|----------------|
|-------0-1h3p1p0-----|------0-------1|-1h3p1p0--------|
|-2---------------2---|----0---0------|---------2-----0|
|-----2-------------2-|--0---------2--|-3-----------2--|
|---0-----0-----------|----------3----|----------------|
|---------------------|-3-------------|-----------0----|

|-------------|-0h1p0-----------------(0)-|------------|
|-----1p0-----|---------0h1p0----0h1h3h5--|-----3-----1|
|---------2---|----------------2----------|-----0------|
|---2-------2-|-------2-------------------|---0-----2--|
|-0-----------|-----0---------------------|-------3----|
|-------------|---------------------------|-3----------|

|-----------------|---------------|
|-1h3p1p0---------|-----1p0-------|
|---------2-----0-|---------2---2-|
|-3-----------2---|---2-------2---|
|-----------------|-0-------------|
|-----------0-----|---------------|

Refren: 
|-------------|-------0-----|-------------|---------0--|
|-------------|(3)------1---|-----1-0-----|-----1-----1|
|-2---2-----0-|-----0-----0-|---2-------0-|---2---2----|
|---2-----2---|---0---------|-3-------2---|------------|
|-0-----0-----|-------3-----|-------------|-0----------|
|-------------|-3-----------|-------0-----|------------|

Sloka: 
|-------0-----|---------0---|-------0-----|------------|
|---1-----1---|-----0-------|---1-------1-|------------|
|-----2-----2-|-------------|-----2---2---|-----0-----1|
|-3-----------|---2---2---2-|-3-----------|---2-----2--|
|-------------|-3-----------|-------------|-3----------|
|-------------|-------------|-------------|-------0----|

|-------------|-------0-----|-------------|---------0--|
|-------1-----|(3)------1---|-----1-0-----|-----1-----1|
|-----2-----0-|-----0-----0-|---2-------0-|---2---2----|
|---2-----2---|---0---------|-3-------2---|------------|
|-0-----------|-------3-----|-------------|-0----------|
|-------------|-3-----------|-------0-----|------------|

Outro: 
|0h1p0----------------(0)-|-----------|----------------|
|--------0h1p0---0h1h3h5--|----3-----1|-1h3p1p0--------|
|-------------(2)---------|----0------|---------2-----0|
|------2------------------|--0-----2--|-3-----------2--|
|----0--------------------|------3----|----------------|
|-------------------------|3----------|-----------0----|

|-------------|-0h1p0-------------|
|-----1p0-----|-------1-----------|
|---------2---|---------2---------|
|---2-------2-|-----------2---2---|
|-0-----------|-----0-------3---0-|
|-------------|-------------------|
×

Historie úprav

17. 09.

Červ (rozdíl)

17. 09.

Červ (aktuální)

Export

Sdílení