Ready Kirken arrow / Poslední dobou

: Poslední dobou

Intro: 
E:|--------------------|-----------------|--------------------|-----------------------|
H:|-----3--------3-----|--2--------2-----|-----3--------3-----|--2--------2-----------|
G:|--------2--------2--|-----2--------2--|--------2--------2--|-----2--------2-----0--|
D:|--0--------0--------|--------0--------|--0--------0--------|--------0--------0-----|
A:|--------------------|-----------------|--------------------|-----------------------|
E:|--------------------|-----------------|--------------------|-----------------------|

E:|--------------------|-----------------------|--------------------|-----------------------|
H:|-----3--------3-----|--2--------2-----------|-----3--------3-----|--2--------2-----------|
G:|--------0--------0--|-----0--------0-----0--|--------0--------0--|-----0--------0-----0--|
D:|--2--------2--------|--------2--------2-----|--2--------2--------|--------2--------2-----|
A:|--2-----------------|-----------------------|--------------------|--------0--------------|
E:|--------------------|-----------------------|--------------------|-----------------------|

1. D 
Poslední dobou 
Dmaj7 
zdá se mi

D 
proti své vůli 
Dmaj7 
létám vysoko 
Emi7 
nad zemí 
Emi6 
 
Emi7 
 
Emi6 
 
A7* 
 

z té D 
výšky pozo
Dmaj7 
ruji svět

jsem D 
chvíli tam a 
Dmaj7 
náhle padám až 
Emi7 
na samotné dno 
Emi6 
zpět 
Emi7 
 
Emi6 
 
A7* 
 


Ref: G 
Dopo
D 
sud jsem nepo
Ami 
znal

je to trest či Emi 
velmi 
G 
vzácný 
D 
dar 
Ami 
 
Emi 
 

G 
dopo
D 
sud jsem nepo
Ami 
znal

je to pravda Emi 
nebo 
G 
pouhý 
D 
klam 
Ami 
 
Emi 
 


Mez: 
E:|-1--1--------0--0--|
H:|-1--1--------1--1--|
G:|-2--0--------0--0--|
D:|-3--3--------2--0--|
A:|-x--x--------3--3--|
E:|-x--x--------x--x--|
.
.
.
.
.
.
.
.
.
.
.
.
.
.

F 
 
Fsus2 
 Večer i za svítání 
C 
 
Csus2 
(večer i za svítání)

F 
 
Fsus2 
 přichází bez pozvání 
C 
 
Csus2 
(přichází bez pozvání)


2. Poslední dobou zdá se mi
proti své vůli létám vysoko nad zemí
jsem otrok jenž vychutnává svobodu
jsem důsledkem ty příčinnou bez objasnění důvodů

Ref: 

3. Poslední dobou zdá se mi
proti své vůli létám vysoko nad zemí
už vím jak jsem podcenil
tvůj blahodárný vliv na chod mých gravitačních sil

Ref: 

(Večer i za svítání) večer i za svítání (večer i za svítání)
(večer i za svítání) přichází bez pozvání (přichází bez pozvání)
(přichází bez pozvání) večer i za svítání (večer i za svítání)
(přichází bez pozvání) přichází bez pozvání
(přichází bez pozvání) 
video

Historie úprav

02. 11.

jendik (aktuální)

02. 11.

jendik (rozdíl)

07. 07.

jendik (rozdíl)

04. 07.

jendik (rozdíl)

04. 07.

jendik (rozdíl)

Export

Sdílení

Ve zpěvnících