Mig 21 arrow / Hurá

: Hurá

@90bpm

E:|-----0----------0-------
B:|----2----0-2---0-----0--
G:|---2----------2-----2---
D:|--2-----2----0-----0----
A:|-0----------------------
E:|-------3----2-----1-----

Intro. A A7/G Dsus2/F# Dmi7/F 

1. NaA 
šel jsem 
A7/G 
starou fotku,  

na dno Dsus2/F# 
skříňky spadla 
Dmi7/F 
kdoví odkud.

Snad A 
mezírkou mezi 
A7/G 
šuplíkama,

už jsou to Dsus2/F# 
léta, ale 
Dmi7/F 
já jí zas mám.


E:|-----0---------0------0-
B:|----2----0-2----3----0--
G:|---2----------2-----2---
D:|--2-----2----0-----0----
A:|-0----------------------
E:|-------4----2-----1-----

R: HuA 
rá!
E/G# 
 

HuD 
rá!
Hmi 
 

HurA 
á! 
E/G# 
 

HuD 
rá!
Hmi 
  

2. Na tom snímku, co fotil se sám, 
samospouští, tě po boku mám.
Ty se tváříš, že nelze mít víc.
Oči nám září, jako chtěli by říct:

R: 

mezzo: A A7/G D/F# Dmi/F A A7/G D/F# Dmi/F 

3. Život mezi spánkem a snem,
můj život letí vesmírem.
A bez tebe pochopil jsem,
žádný smysl … nemá.

mezzo: A E/G# D Hmi 

4. Našel jsem starou fotku,
na dno skříňky spadla kdoví odkud.
Já jí sbírám, stírám z ní prach,
rovzpomínám se na náš vztah.

R: HuA 
rá!
E/G# 
 

HuD 
rá!
Hmi 
 

HurA 
á! 
E/G# 
 

HuD 
rá!
Hmi 
  


A 
video

Historie úprav

09. 05.

jendik (aktuální)

09. 05.

jendik (rozdíl)

13. 04.

jendik (rozdíl)

13. 04.

jendik (rozdíl)

13. 04.

jendik (rozdíl)

13. 04.

jendik (rozdíl)

01. 04.

jendik (rozdíl)

05. 03.

jendik (rozdíl)

15. 11.

jendik (rozdíl)

Export

Sdílení