Intro: [Bm,E,A,D,A/C#] [Bm,E,D/F#,Esus2,E] E:|-2-2-------0-0--0-4-4-5-7-5-5-5-0---2-2--2-0-0-2-0-| B:|-----3-0-0------------------------3----------------| G:|-----------------------------------------"> Take on me (text a akordy) / a-ha - Zpěvníky Smallhill

a-ha arrow / Take on me

: Take on me

No capo
Rhythm: 169bpm
Strumming : 



Intro: Bm E A D A/C# 
Bm E D/F# Esus2 E 

E:|-2-2-------0-0--0-4-4-5-7-5-5-5-0---2-2--2-0-0-2-0-|
B:|-----3-0-0------------------------3----------------|
G:|---------------------------------------------------| x2
D:|---------------------------------------------------|
A:|---------------------------------------------------|
E:|---------------------------------------------------|

E:|-2-2-------0-0--0-4-4-5-7-5-5-5-2---2-2--2-0-0-0---|
B:|-----3-0-0------------------------3----------------|
G:|---------------------------------------------------| x1
D:|---------------------------------------------------|
A:|---------------------------------------------------|
E:|---------------------------------------------------|

Bm 
Talking away
E 
,  
A 
I don’t know what 
D 
I’m to 
A/C# 
say

I’ll Bm 
say it anyway
E 
,To
A 
day’s another 
D 
day to 
A/C# 
find you

Bm 
Shyin' aw
E 
ay, 
F#m 
I’ll be coming for your 
D 
love, OK?
Ch: A 
Take 
E/G# 
on 
F#m 
me (
D 
take on me)

Take me on (take on me)
I’ll be gone
in a day or two

1. So, needless to say I'm odds and ends, but I'll be
stumbling awake slowly learning that life is OK,
Say after me, it’s no better to be safe than sorry

Ch: 

Bridge: C#m G 
C#m G 
Bm E 

2. Oh, things that you say, yeah is it life or just to play
My worries away, you’re all the things I’ve got to remember
You are shying away, I’ll be coming for you anyway

Ch: 

Historie úprav

03. 04.

PetrCala (aktuální)

Export

Sdílení

Ve zpěvnících

Písnička není v žádném zpěvníku.