STOJIMEZAUKRAJINOU.CZ ❤ Pomáhat Ukrajině můžeš rukama i hlavou, materiálně i finančně, z terénu i z gauče.

Xavier Baumaxa arrow / Lidé z malých vesniček

: Lidé z malých vesniček

F C# Dm C 
Bb A Gm C 
1. F 
Lidé z malých 
C# 
vesniček a 
Dm 
měst jsou z jiných 
C 
těst

jsem si Bb 
jist, tak to 
A 
jest, někdo je na 
Gm 
pěst,

toje ale C 
zvěst!


R: No a my ty pěstě obrátíme v žestě - minimálně 200
dalších let tu po nás budou bádat,
proč si trubky do trumpety přestali dávat.

2. Ale kosmopolita si kjásně v kosmu polítá
vesničan neváhá, není vůl - ženu za pluh zapřahá.

3. Eman Tzipatze je bratrem Karla Tzipatze
licitce o ženu končí pěstmi v nočním průvanu.

4. Ale jiné úkoly ma pán s nehtem pěstěným
image v okolí nebýt ani chvíli nechtěným.

5. Na tři akordy chlapci už jsou na kordy
hráli si na lordy, teď si dávaj´ pěstí do mordy

R: a my ty pěstě obrátíme …
(solo trubka)
R: a my ty pěstě obrátíme …

|F         C#        Dm        C
|---------|---------|---------|---------|
|---------|---------|---------|---------|
|-----2---|-----6---|-----7---|-----5---|
|---3---3-|---6---6-|---7---7-|---5---5-|
|---------|-4-------|-5-------|-3-------|
|-1-------|---------|---------|---------|
| B         Dm/A      G             C
|---------|---------|-------------|---------|
|---------|---------|-------------|---------|
|-----3---|-----2---|-----0-------|-----5---|
|---3---3-|---3---3-|---0------0--|---5---5-|
|-1-------|-0-------|-----0h1-----|-3-------|
|---------|---------|-3-----------|---------|
video

Videonávod

video

Historie úprav

06. 07.

agione (aktuální)

06. 07.

agione (rozdíl)

Export

Sdílení

Ve zpěvnících