STOJIMEZAUKRAJINOU.CZ ❤ Pomáhat Ukrajině můžeš rukama i hlavou, materiálně i finančně, z terénu i z gauče.

Wohnout arrow / Gramofón

: Gramofón

Intro: 
e|------------------------------------------
h|--9-9--11-12-11-9--------------12-11-9-11-
g|------------------11-8----8-11------------
d|-----------------------11-----------------
a|------------------------------------------
e|------------------------------------------

Solo: 
e|--16-16-14-16-14-16-------14----14-14----14----14----------
h|--------------------16-16----16-------16----16----16-14----
g|--------------------------------------------------------16
d|-----------------------------------------------------------
a|-----------------------------------------------------------
e|-----------------------------------------------------------

e|--16-16-14-16-14-16-------14----14-14----14----14----------
h|--------------------16-16----16-------16----16----16-14-16
g|-----------------------------------------------------------
d|-----------------------------------------------------------
a|-----------------------------------------------------------
e|-----------------------------------------------------------
video

Historie úprav

10. 04.

Janek (aktuální)
Pozn.: yt video

05. 04.

Kopec (rozdíl)

Export

Sdílení

Ve zpěvnících

Písnička není v žádném zpěvníku.