STOJIMEZAUKRAJINOU.CZ ❤ Pomáhat Ukrajině můžeš rukama i hlavou, materiálně i finančně, z terénu i z gauče.

Anna K. arrow / Nebe

: Nebe

A C#mi A C#mi 

A 
Odlítaj za 
C#mi 
jiným světem

A 
Odlítaj za 
C#mi 
lepším stínem

A 
Nezůstane 
C#mi 
ani jedi
H 

E 
Krásný
C#mi 
E 
krásný 
C#mi 
nejsou stejný

E 
Krásná 
C#mi 
tvář vypá
H 
lená svatozář

C#mi 
S oblohou se znali ze starejch 
A 
časů

C#mi 
S oblohou je spojil déšt do 
A 
vlasů, 
H 
sníh


E 
A tak nááá
H 
ám vzali 
C#mi 
nebe,
E 
 

vzali A 
nebe ..
H 
 

E 
Nááá
H 
ám vzali 
C#mi 
nebe,
E 
 

vzali A 
nebe ..
H E 
 


A 
Zůstali jsme 
C#mi 
sami prázdný

A 
Nevlídný a 
C#mi 
příliš vážný

A 
Spoutaný a v 
C#mi 
půlce zlome
H 

E 
Krásný
C#mi 
E 
krásný 
C#mi 
nejsou stejný

E 
Krásná 
C#mi 
tvář vypá
H 
lená svatozář

A 
Chtěli jsme mít 
C#mi 
všechno stejný

A 
Srovnaný a 
C#mi 
samozřejmý

A 
Zůstali jsme 
C#mi 
sami šedi
H 
vý a zlomený


A tak náááám vzali nebe,
vzali nebe ..
Náááám vzali nebe,
vzali nebe ..
Náááám vzali nebe,
vzali nebe ..
Náááám …
správné akordy zjednodušeně:

A 4 C#mi H E

Riff: 

E:|-A---------------C#mi-------------
B:|----------------------------------
G:|-----4-------4-------4-------4----
D:|---2---2---2---2---2---2---2---2--
A:|-0-------0-------4-------4--------
E:|----------------------------------

E:|-H-------0---------------0--------
B:|-------0---0-----------0---0------
G:|-----4-------4-------4-------4----
D:|---4-----------4---4-----------4--
A:|-2---------------2----------------
E:|----------------------------------

Riff2: 

E:|-E---------------C#mi----0--------
B:|---------0-------------5---5------
G:|-------4---4---------6-------6----
D:|-----2-------2-----6-----------6--
A:|---2-------------4----------------
E:|-0-------------0------------------

E:|-H-------0---------------0--------
B:|-------0---0-----------0---0------
G:|-----4-------4-------4-------4----
D:|---4-----------4---4-----------4--
A:|-2---------------2----------------
E:|----------------------------------

Ref: 

E H   4 C#mi 7 E 5 A 7 H

Historie úprav

11. 11.

ntz (aktuální)

11. 11.

ntz (rozdíl)

11. 11.

ntz (rozdíl)

11. 11.

ntz (rozdíl)

11. 11.

ntz (rozdíl)

Export

Sdílení

Ve zpěvnících

ntz