STOJIMEZAUKRAJINOU.CZ ❤ Pomáhat Ukrajině můžeš rukama i hlavou, materiálně i finančně, z terénu i z gauče.

Markovo arrow / Karel Plíhal arrow / Vstávej holka (taby)

: Vstávej holka (taby)

CAPO II
Intro: 
e:|-------------|
h:|-------------|
g:|-----0---0---|
d:|---4---4---4-|
a:|-5-----------|
E:|-------------|

Mezihra: 
|  let ring                         let ring  
|        let ring   let ring              let ring     let ring
e:|-5-------------|-5-------------|-5----------------|-5----------------|
h:|------3--------|---------------|-------3----------|-------0----------|
g:|----------0----|-------0---0---|-------------0----|-------------0----|
d:|----4---4---4--|----4----4---4-|----4-----4-----4-|----4-----4-----4-|
a:|-5-------------|-5-------------|-5----------------|-5----------------|
E:|---------------|---------------|------------------|------------------|

Riff1: 
e:|-2-3-2-----0-|---------|--------------|-------------|
h:|-------3-0---|-2-------|-0-2-3-0--3-2-|-------------|
g:|-------------|-----2---|-0-0-0-0------|-----0---0---|
d:|-------------|---2---2-|--------------|---4---4---4-|
a:|-0-----------|-4-------|-0--------0-0-|-5-----------|
E:|---------0---|---------|--------------|-------------|

Riff2: 
|                  2x
e:||---2-------0-----||-------------|---------|
h:||o--3-0-3-0---0--o||-2-------0---|-2-------|
g:||-----------------||-----0-------|-----0---|
d:||---4-------------||---2---2---2-|---2---2-|
a:||o---------------o||-0-------2---|-0-------|
E:||-----------0-----||-------------|---------|

Uspořádání: 
__________
Intro: 
Mezihra: 

Riff1: 2× |--->
Riff2: 1× |---> = sloka
Riff1: 1× |--->

Mezihra: 
Sloka: 
Mezihra: 
Sloka: 
Mezihra: 
Sloka: 
Mezihra: 

Anebo: o něco lépe v PDF

https://ulozto.cz/!f5KscGUrR/karel-plihal-vstavej-holka-pdf
×
video

Historie úprav

21. 02.

marek (aktuální)
Pozn.: dovolím si úpravu v mezihře, kde si myslím, že je lepší držet rovnou celý D(add11), než hrát prázdné D a pak domačkávat 4. pražec?

27. 07.

Červ (rozdíl)

08. 01.

Červ (rozdíl)

07. 01.

Červ (rozdíl)

07. 01.

Červ (rozdíl)

07. 01.

Červ (rozdíl)

Export

Sdílení

Ve zpěvnících